Misc Television - Mxc Most Extreme Elimination Challenge Theme Chords & Tabs

 

Mxc Most Extreme Elimination Challenge Theme Chords & Tabs

Misc Television Chords & Tabs

Version: 1 Type: Tab 0 ratings
1 star 2 stars 3 stars 4 stars 5 stars
comments

Mxc Most Extreme Elimination Challenge Theme Tab

 = Most Extreme Elimination Challenge Theme (MXC)
Tuning = EADgbe (standard)
Tabber = Dumpy The Destroyer

x = muted
 = slide
-PM- = palm mute wherever indicated
() = harmonics
~ = let ring
^ = bend

Play this with distrortioin or even fuzz.
[ Tab from: http://www.guitartabs.cc/tabs/m/misc_television/mxc_most_extreme_elimination_challenge_theme_tab.html ]
Fig 1 
e|----------------------------------------------------------------------|
b|----------------------------------54/54/5---------------------------|
g|----------------------------------32/32/3---------------------------|
D|---------2----------3----------4--------------------------------------|
A|-0-2-3-2----0-2-3-2----0-2-3-2----------------------------------------|
E|----------------------------------------------------------------------|
Repeat this for the intro to the show.

Fig 2 
e|----------------------------------------------------------------------|
b|-------------------------------------------------54/54/5------------|
g|-------------------------------------------------32/32/3------------|
D|----------------------------------------------------------------------|
A|-3-3-3-3-3-3-3-3-3-3-3-3-3-3-3-3-5-5-5-5-5-5-5-5----------------------|
E|----------------------------------------------------------------------|
  ----------------------PM------------------------
Repeat this part when the anouncer is introducing the teams and hosts.
Comments