Misc Television - Munsters Theme Chords & Tabs

 

Munsters Theme Chords & Tabs

Misc Television Chords & Tabs

Version: 2 Type: Tab 0 ratings
1 star 2 stars 3 stars 4 stars 5 stars
comments

Munsters Theme Tab

------------------------------------------------------------------------------|
------------------------------------------------------------------------------|
------------------------------------------------------------------------------|
----------------------------------------------------------------7-------------|
-------6--7--------6--7--------6--7--------6--7-----------6--7-----8--7--5----|
-5--5--------5--5--------5--5--------5--5--------5--8--5----------------------|

[ Tab from: http://www.guitartabs.cc/tabs/m/misc_television/munsters_theme_tab_ver_2.html ]
------------------------------------------------------------------------------|
------------------------------------------------------------------------------|
------------------------------------------------------------------------------|
--------------------------------------------7---------------------------------|
-7--5-----5--------------------------6--7------8--7--5--7--5--7---------------|
-------8-----8--7--5--3--5--5--8--5------------------------------0--0--0--2---|


------------------------------------------------------------------------------|
------------------------------------------------------------------------------|
------------------------------------------------------------------------------|
------------------------------------------------------------------------------|
------------------------------------------------------------------------------|
-4--5-------------------------------------------------------------------------|
Comments