Misc Television - Munster Theme Chords & Tabs

 

Munster Theme Chords & Tabs

Misc Television Chords & Tabs

Version: 1 Type: Tab 0 ratings
1 star 2 stars 3 stars 4 stars 5 stars
comments

Munster Theme Tab

Title: Munster Theme Song

e----------------------------------------------------
B----------------------------------------------------
G----------------------------------------------------
D---1h2---1h2---1h2---1h2----------------------------
A-0-----0-----0-----0--------------------------------
E----------------------------------------------------
[ Tab from: http://www.guitartabs.cc/tabs/m/misc_television/munster_theme_tab.html ]
e----------------------------------------------------
B----------------------------------------------------
G-----------2----------------------------------------
D-------1-2---3-2-0-2-0---0--------------------------
A-0-3-0-----------------3---3-2-0---0----------------
E---------------------------------3------------------

e----------------------------------------------------
B----------------------------------------------------
G-----------2----------------------------------------
D-------1-2---3-2-0---0-2----------------------------
A-0-3-0-------------3---------------0----------------
E-------------------------0-0-0-2-4------------------

e----------------------------------------------------
B----------------------------------------------------
G---0-0-0--------------------------------------------
D---------3-2-3-2-0---2-2-2-0---0--------------------
A-0-----------------3---------3---3-1-2--------------
E----------------------------------------------------
Comments