Misc Television - Mighty Morphin Power Rangers Chords & Tabs

 

Mighty Morphin Power Rangers Chords & Tabs

Misc Television Chords & Tabs

Version: 1 Type: Bass Tab 0 ratings
1 star 2 stars 3 stars 4 stars 5 stars
comments

Mighty Morphin Power Rangers Bass Tab

Mighty Morphin Power Rangers
Tabbed by springwaffle

  Intro
g------------------------------------
d--------------------2---------------
a----------------------3-2-0-2-0-----
e-0--0--0--0--0--0---------------3-1-

g|--------------------------------|
d|*------------------------------*|
a|*--------------------------0-2-*|
e|--0-0--0-0-0--0-0-0--0-3-0------|

g-----------------------------------------------------0-------0---
d-----2-------2---0-0-4-0-0-0-4-0-----0-------0---2-2---2-0-0---0-
a-3-3---3-3-3---3-----------------2-2---2-2-2---2-----------------
e-----------------------------------------------------------------

g-----------------------------------
d-----2-------2-------2-------2-----
a-3-3---3-3-3---3-3-3---3-3-3---3-2-
e-----------------------------------
[ Tab from: http://www.guitartabs.cc/tabs/m/misc_television/mighty_morphin_power_rangers_btab.html ]
  Verse
g|-------------------------------------------------------------------|
d|*-------------------------------------2-------2---0-0-4-0-0-0-4-0-*|
a|*---------------------------------3-3---3-3-3---3-----------------*|
e|--0-0-3-0-0-0-3-0-0-0-3-0-0-0-3-0----------------------------------|

  Chorus
g-----------------------------------------------------------
d-----3-------3-------3-------3---3--2--0-----0-------------
a------------------------------------------3-----3--1-------
e-1-1---1-1-1---1-1-1---1-1-1---1----------------------3--0-

  Bridge
g-------------------------------------------------------------
d-------------------------------------------------------------
a-------------------------------------------------0-0-1-1-2-2-
e-0-0---0-0--0-0--0-0--0-0--0-0-0-1-1-2-2-3-3-4-4-------------
Comments