Misc Television - Mash Chords & Tabs

 

Mash Chords & Tabs

Misc Television Chords & Tabs

Version: 1 Type: Tab 2 ratings
1 star 2 stars 3 stars 4 stars 5 stars
comments

Mash Tab

   
This is the M*A*S* theme pretty much done right.


       Dm7              G7               C                 Am7
E-|-3---1--0--1--0--1|-----0-----------|---0------0------|--0--------------0--|
B-|------------------|----------2------|-------3-------3-|-----3---1----------|
G-|------------------|-----------------|-----------------|--------------------|
D-|------------------|-----------------|-----------------|--------------------|
A-|------------------|-----------------|-----------------|--------------------|
E-|------------------|-----------------|-----------------|--------------------|
[ Tab from: http://www.guitartabs.cc/tabs/m/misc_television/mash_tab.html ]
    Dm7                G7                C                  A7
E-|------------------|-----------------|-----------------|----------0---------|
B-|-3----1--3--1---3-|----1---0-----3--|-1----0--1--0---1|-----3--------------|
G-|------------------|-----------------|-----------------|--------------------|
D-|------------------|-----------------|-----------------|--------------------|
A-|------------------|-----------------|-----------------|--------------------|
E-|------------------|-----------------|-----------------|--------------------|


E-|--0-2-0-2-0-2-0---|--0-2-0-2-0-2-0--|------------0--2-|--3-----------2-0-2-|
B-|------------------|-----------------|---3--0--3-------|--------------------|
G-|------------------|-----------------|-----------------|--------------------|
D-|------------------|-----------------|-----------------|--------------------|
A-|------------------|-----------------|-----------------|--------------------|
E-|------------------|-----------------|-----------------|--------------------|
Comments