Misc Television - Mankind Wwf Chords & Tabs

 

Mankind Wwf Chords & Tabs

Misc Television Chords & Tabs

Version: 1 Type: Tab 0 ratings
1 star 2 stars 3 stars 4 stars 5 stars
comments

Mankind Wwf Tab

I figured this out myself
All the other ones on this site looked wrong to me.
Enjoy...
(Standard Tuning)Through in various amounts of mutes(x)in order to 
play it exactly like the song.
\=Slide

e---------------------------------------
B---------------------------------------
G---------------------------------------
D-------------2-------------------------
A--777---33-xx2-------------------------
E--555---22-xx0-------------------------
[ Tab from: http://www.guitartabs.cc/tabs/m/misc_television/mankind_wwf_tab.html ]
B---------------------------------------
G---------------------------------------
D-------------22---2-2------------------
A--777---33-xx22-452424\5---------------
E--555---22-xx00-230202\3---------------

e---------------------------------------
B---------------------------------------
G---------------------------------------
D-------------2xx242--------------------
A--777---33-xx2xx242--------------------
E--555---22-xx0xx020--------------------
***If you want to E-MAIL me with comments or questions about this song
or any other songs my E-MAIL is MMBSB5@aol.com***
Comments