Misc Television - Looney Tunes Theme Chords & Tabs

 

Looney Tunes Theme Chords & Tabs

Misc Television Chords & Tabs

Version: 1 Type: Tab 0 ratings
1 star 2 stars 3 stars 4 stars 5 stars
comments

Looney Tunes Theme Tab

   
Song: Looney Tunes theme
Band: N/A
Tabbed by: SpRiNgWaFfLe

e-0-----------0-----0------------------------------------------------
b----3--1--3-----4-----1--3-3-3-3----3--1--0--1--3--2--3--0--1-1-1-1-
g--------------------------------------------------------------------
[ Tab from: http://www.guitartabs.cc/tabs/m/misc_television/looney_tunes_theme_tab.html ]
d-------------------------------------------------------
a-------------------5-5-5-5---------------------7-7-7-7-
e-3-4-5-4-3-4-5-4-3-----------3-4-5-4-3-4-5-4-3---------

e-12--------------12------12--------------------------------10--12--15-
b-----15--13--15------16------13--15-15-15-15----10--9--10-------------
g----------------------------------------------------------------------
Comments