Misc Television - Loewenzahn Theme Chords & Tabs

 

Loewenzahn Theme Chords & Tabs

Misc Television Chords & Tabs

Version: 1 Type: Tab 0 ratings
1 star 2 stars 3 stars 4 stars 5 stars
comments

Loewenzahn Theme Tab

   
Artist:		Löwenzahn-Theme-Author
Composition:	Löwenzahn-Theme
Transcription:	Simon Seipel (webmaster@simon-seipel.de)
Tuning:		Standard (EADGHe)


riff a
||------------------|-----------------|-----------------||	- riff a
||------------------|-----------------|-----------------||	- riff b
||---0--------------|-----------------|---0-------------||	- riff a
||-----3-2-0--------|-----0-----------|-----[0]-3-2-0---||	- riff a
||------------------|-0h2-------------|------*----------||	- riff c
||-3----------------|-----------------|-3---------------||	
								 [Löwenzahn]
* this note is only played a few times in the song		- riff a
								- riff c
								
riff b								- riff a
||------------------|-----------------|-----------------||	- riff a
||---1--------------|-----------------|---1-------------||	- riff c
||-----3-2-0--------|-----0-----------|-----3-2-0-------||
||------------------|-0h2-------------|-----------------||
||-3----------------|-----------------|-3---------------||
||------------------|-----------------|-----------------||
[ Tab from: http://www.guitartabs.cc/tabs/m/misc_television/loewenzahn_theme_tab.html ]
riff c
||------------------|-----------------|-----------------||
||------------------|-----------------|-----------------||
||------------------|-----------------|-----------------||
||---3--------------|-----------------|-----------------||
||-1---0------------|-(0)-------------|-----------------||
||------------------|-----------------|-----------------||



piano riffs

||------------------|-----------------|--------------------------||
||-------12-12------|-----------------|-12-----------------------||
||-12h14------------|-----------------|----14p12-----------------||
||------------------|-----------------|----------12-12-----------||
||------------------|-----------------|--------------------------||
||------------------|-----------------|--------------------------||

||------------------|-----------------|--------------------------||
||-------12-12------|-12--------------|-------12-12-12-------15--||
||-12h14------------|----14-12--------|-12h14----------14p12-----||
||------------------|-----------------|--------------------------||
||------------------|-----------------|--------------------------||
||------------------|-----------------|--------------------------||

||----12-13-13-13p12----|-----------------|-------------------17]||
||-15----------------15-|-13-13-----------|-------12-12-12-[17---||
||----------------------|-------12h14-15--|-14---------------*---||
||----------------------|-----------------|----------------------||
||----------------------|-----------------|----------------------||
||----------------------|-----------------|----------------------||

* don't play the first time
Comments