Misc Television - Levis Icecrem Van Roof Theme Chords & Tabs

 

Levis Icecrem Van Roof Theme Chords & Tabs

Misc Television Chords & Tabs

Version: 1 Type: Tab

Levis Icecrem Van Roof Theme Tab

Levis advert
This is such a sweeeet advert ;)
his is the one where the dude is lying on the roof of the ice cream van.

:D I thought id better tab this cus no1 else has.

**Add the occasional bend where eva it feels right to make it sound even more cooool***

| /  slide up
| \  slide down

E|----------------------|
B|----------------------|
G|-7-7\----4----0-------|
D|----------------------|
A|----------------------|
E|----------------------|
[ Tab from: http://www.guitartabs.cc/tabs/m/misc_television/levis_icecrem_van_roof_theme_tab.html ]
E--------------------------------------|
B--------------------------------------|
G-2-2---4----5-5\----2---7-7\----4---0-|
D--------------------------------------|
A--------------------------------------|
E--------------------------------------|

E----------------------------------------|
B----------------------------------------|
G-7-7\---4----5-5\----2/---7-7\----4---0-|
D----------------------------------------|
A----------------------------------------|
E----------------------------------------|

E----------------------------------------------|
B----------------------------------------------|
G-2----5--4---2-----4--0-----------4----0------|
D-2----5--4---2------------3--0----4----0------|
A----------------------------------------------|
E----------------------------------------------|

***!!Enjoy!!***
Matty Powell :D