Misc Television - Late Night Theme Chords & Tabs

 

Late Night Theme Chords & Tabs

Misc Television Chords & Tabs

Version: 1 Type: Tab 1 rating
1 star 2 stars 3 stars 4 stars 5 stars
comments

Late Night Theme Tab

Song: Late Night with Conan O'Brien Theme
Artist: Max Wienberg and the Max Wienberg 7
Tabbed by randombass

*NOTE*- This is a very simple song, yet is a great jazz tune.

Tab Key
 Let Note Hold *
 Slide Up /

Verse
 G----------------- ---4-------------
 D-------3-5---3--- -5---3-------3---
 A---2-5-----5---5- -------5---5---5-
 E-3--------------- ---------3-------
[ Tab from: http://www.guitartabs.cc/tabs/m/misc_television/late_night_theme_tab.html ]
Bridge
 G-----------1-3-5- -8-6-4-2-0-------
 D-----0-2-4------- -----------3-1---
 A-1-3------------- ---------------4-
 E----------------- -----------------

Outro              
 G-----------------
 D-----------------
 A-----------------
 E-3-3*-3-3*-3*-3*-             You can slide up to an octave on the
                                last three of the outro. Otherwise,
                                just work out the timing yourself.
Comments