Misc Television - Knight Rider Theme Chords & Tabs

 

Knight Rider Theme Chords & Tabs

Misc Television Chords & Tabs

Version: 1 Type: Tab 0 ratings
1 star 2 stars 3 stars 4 stars 5 stars
comments

Knight Rider Theme Tab

This song is really easy for guitar. You can play it with two guitars.
It sounds like there could be palm muted notes in the background
throughout the whole song... too hard to tab out though. Have fun with this.

While the bass and drums are playing together you can play these
chords softly but you dont have to.

E[--9-----14--]
B[--7-----14--]
G[------------]
D[------------]
A[------------]
E[------------]

E[--------9-------13-14-13-------------9-14-10--]
B[--7-8-7------------------14----7-8-7----------]
G[----------------------------------------------]
D[----------------------------------------------]
A[----------------------------------------------]
E[----------------------------------------------]
[ Tab from: http://www.guitartabs.cc/tabs/m/misc_television/knight_rider_theme_tab.html ]
E[--------9-------13-14-13-------------9-14-15---------8-9\--]
B[--7-8-7------------------14----7-8-7-----------------------]
G[-----------------------------------------------------------]
D[-----------------------------------------------------------]
A[-----------------------------------------------------------]
E[-----------------------------------------------------------]

E[--------9-------13-14-13-------------9-14-10--]
B[--7-8-7------------------14----7-8-7----------]
G[----------------------------------------------]
D[----------------------------------------------]
A[----------------------------------------------]
E[----------------------------------------------]

E[--------9-------13-14-13-------------9-14-15---------8-9\--]
B[--7-8-7------------------14----7-8-7-----------------------]
G[-----------------------------------------------------------]
D[-----------------------------------------------------------]
A[-----------------------------------------------------------]
E[-----------------------------------------------------------]

E[----------------9---------9-9-14--]
B[--7--7-7-8--8-8-------------------]
G[----------------------------------]
D[----------------------------------]
A[----------------------------------]
E[----------------------------------]
Comments