Misc Television - Kare Kano Opening Chords & Tabs

 

Kare Kano Opening Chords & Tabs

Misc Television Chords & Tabs

Version: 1 Type: Tab 0 ratings
1 star 2 stars 3 stars 4 stars 5 stars
comments

Kare Kano Opening Tab

   
                              Yume no Naka e
                         (Kare Kano Ending Theme)

                         Lyrics from Anime Lyrics
                       (http://www.animelyrics.com)
                         Tabbed by Paul Cosgrove
                   (victimoftherevolution@hotmail.com)

Notes:---------------------------------------------------------------------->>
Tuning:  Standard (EADGBE)

Some of the more observant among you may notice that I haven't tabbed all the
acoustic lead riffs in the middle of the verses and and choruses (except for
those ones covered by the chord changes).  Those sections may show up in a
later version of the tab.


Intro:---------------------------------------------------------------------->>
e|-----------------|-----------------|-----------------|-----------------|
B|-8---6-5-6-5---8:------------------|-8---6-5-6-5-----|-----------------|
G|-----------------|-----------------|-----------------|-----------------|
   1 + 2 + 3 + 4 +   1 + 2 + 3 + 4 +   1 + 2 + 3 + 4 +   1 + 2 + 3 + 4 + 

e|-----------------|-----------------|-----------------|-----------------|
B|-8---6-5-6-5---8:------------------|-8---6-5-6-5-----|-----------------|
G|-----------------|-----------------|-----------------|-----------------|
D|-----------------|-----------------|---------------7:--------5-7---9---|
A|-----------------|-----------------|-----------------|-----------------|
   1 + 2 + 3 + 4 +   1 + 2 + 3 + 4 +   1 + 2 + 3 + 4 +   1 + 2 + 3 + 4 +

Verse 1:-------------------------------------------------------------------->>

C                             C/B
   sagashimono wa nan desu ka

Am                           AM7
   mitsukenikui mono desu ka

F
   KABAN no naka mo

            E  F  F#
tsukue no naka mo

G
   sagashita keredo mitsukaranai no ni

C                              C/B
   mada mada sagasu ki desu ka

Am                                 AM7
   sore yori boku to odorimasen ka

F
   yume no naka e

          E  F  F#
yume no naka e

G
   itte mitai to omoimasen ka

Chorus:--------------------------------------------------------------------->>
Riff 1:
e|-12----10-8--10----8----|
B|------------------------|
   1  +  2  +  3  +  4  +

Riff 2:
e|-8-----7--6--7----6-----|
B|------------------------|
   1  +  2  +  3  +  4  +

Riff 3:
e|-10----8--7--8-----10---|
B|------------------------|
   1  +  2  +  3  +  4  +
  
Am     (Riff 1)
U U U-

F      (Riff 2)
U U U-

G      (Riff 3)
U U U-

  Am     G
saa
[ Tab from: http://www.guitartabs.cc/tabs/m/misc_television/kare_kano_opening_tab.html ]
Verse 2:-------------------------------------------------------------------->>
yasumu koto mo yurusarezu
warau koto wa tomerarete
haitsukubatte
haitsukubatte
ittai nani wo sagashite-iru no ka
sagasu no wo yameta toki
mitsukaru koto mo yoku aru hanashi de
odorimashou
yume no naka e
itte mitai to omoimasen ka

Chorus:--------------------------------------------------------------------->>
Am     (Riff 1)
U U U-

F      (Riff 2)
U U U-

G      (Riff 3)
U U U-

  Am     G
saa

Bridge:--------------------------------------------------------------------->>
e|-----------------|-----------------|-----------------|-----------------|
B|---------8-6-5-6-|-5:--------------|---------8-6-5-6-|-5:--------------|
G|-----------------|-----------------|-----------------|-----------------|
   1 + 2 + 3 + 4 +   1 + 2 + 3 + 4 +   1 + 2 + 3 + 4 +   1 + 2 + 3 + 4 +

e|---------5-------|---------5-------|---------7-------|---------7-------|
B|-----------------|-----------------|-----------------|-----------------|
G|---5-------------|---5-------------|---7-------------|---7-------------|
D|-7---------------|-7---------------|-9---------------|-9---------------|
A|-----------------|-----------------|-----------------|-----------------|
   1 + 2 + 3 + 4 +   1 + 2 + 3 + 4 +   1 + 2 + 3 + 4 +   1 + 2 + 3 + 4 +

Verse 3:-------------------------------------------------------------------->>
sagashimono wa nan desu ka
mada mada sagasu ki desu ka
yume no naka e
yume no naka e
itte mitai to omoimasen ka
Chorus:--------------------------------------------------------------------->>
Am     (Riff 1)
U U U-

F      (Riff 2)
U U U-

G      (Riff 3)
U U U-

  Am     E
saa
Am     (Riff 1)
U U U- (Yume no Naka e)

F      (Riff 2)
U U U- (Yume no Naka e)

G      (Riff 3)
U U U-

  Am     G
saa

Outro:---------------------------------------------------------------------->>
e|-----------------|-----------------|-----------------|-----------------|
B|-8---6-5-6-5---8:------------------|-8---6-5-6-5-----|-----------------|
G|-----------------|-----------------|-----------------|-----------------|
D|-----------------|-----------------|---------------7:--------5-7---9---|
A|-----------------|-----------------|-----------------|-----------------|
   1 + 2 + 3 + 4 +   1 + 2 + 3 + 4 +   1 + 2 + 3 + 4 +   1 + 2 + 3 + 4 +

e|-----------------|-----------------|---------------5:------------------|
B|-8---6-5-6-5---8:------------------|-8---6-5-6-5-----|-----------------|
G|-----------------|-----------------|-----------------|-----------------|
   1 + 2 + 3 + 4 +   1 + 2 + 3 + 4 +   1 + 2 + 3 + 4 +   1 + 2 + 3 + 4 +
------------------------------------------------------------------------->End
Comments