Misc Television - James Bond Theme Chords & Tabs

 

James Bond Theme Chords & Tabs

Misc Television Chords & Tabs

Version: 1 Type: Tab 1 rating
1 star 2 stars 3 stars 4 stars 5 stars
comments

James Bond Theme Tab

The James Bond Theme:

INTRO
E--------------¬
B--------------¬
G--------------¬
D--------------¬
A----2--3--4--3¬
E--0--0--0--0--¬

Repeat
[ Tab from: http://www.guitartabs.cc/tabs/m/misc_television/james_bond_theme_tab.html ]
THE REST
E--------------------------------¬
B--------------------------------¬
G--------------------------------¬
D--------------------------------¬
A--------------------------------¬
E--0222--000--0--333--222--32--302
                                      

E---------------------------¬
B----1--0-------------------¬
G---0----------0------------¬
D--2------2-4-----4-2----0--¬
A----------------------2---4¬
E---------------------------¬

Thats the real one!
Comments