Misc Television - James Bond Chords & Tabs

 

James Bond Chords & Tabs

Misc Television Chords & Tabs

Version: 2 Type: Tab 2 ratings
1 star 2 stars 3 stars 4 stars 5 stars
comments

James Bond Tab

   
Written by: Bond
Title: James Bond
Tabbed by: Weird Donkey 
Album: Dunno

Tunning: e
                 B
                 G
                 D
                 A
                 e
Hi i'm werid donkey this is the first tab i've ever done. My dashes are a bit low sorry.

This is the main bit. There is a backing kind of bit at the end. I don't know end.

e-0-0-0-0-0-0-0-0-0-0
B-0-0-1-1-2-2-1-1-0-0	
G-0-0-0-0-0-0-0-0-0-0
D-2-2-2-2-2-2-2-2-2-2
A-2-2-2-2-2-2-2-2-2-2
e-0-0-0-0-0-0-0-0-0-0

Repeat

Then
[ Tab from: http://www.guitartabs.cc/tabs/m/misc_television/james_bond_tab_ver_2.html ]
e-0-0-0-0-0-0-0-0-0-0-0-0
B-0-0-1-1-1-2-2-1-1-1-0-0
G-0-0-0-0-0-0-0-0-0-0-0-0
D-2-2-2-2-2-2-2-2-2-2-2-2
A-2-2-2-2-2-2-2-2-2-2-2-2
e-0-0-0-0-0-0-0-0-0-0-0-0-0

Thats really the main bit it.But something is missing from the end 

This is kind of the backing 

e------------------------
B-----------------------
G-----------------------
D-----------------------
A-----------------------
e-0-0-1-1-2-2-1-1-0-0

repeat then

e----------------------------
B---------------------------
G---------------------------
D---------------------------
A---------------------------
e-0-0-1-1-1-2-2-1-1-1-0-0


THats it if you got the end bit or you like to give me some comments. 
Please send them to cjammyjames@hotmail.com 
Comments