Misc Television - James Bond Chords & Tabs

 

James Bond Chords & Tabs

Misc Television Chords & Tabs

Version: 1 Type: Tab 1 rating
1 star 2 stars 3 stars 4 stars 5 stars
comments

James Bond Tab

e----------------------------------------------------------------
b----------------------------------------------------------------
g----------------------------------------------------------------
d----------------------------------------------------------------
a----------------------------------------------------------------
e-0--2222--000-0---3333---222--0-2222--000-0--3333-222-----------

e----------------------------------------------------------------
b----------------------------------------------------------------
g----------------------------------------------------------------
d----------------------------------------------------------------
a----------------------------------------------------------------
e-0--2222--000-0---3333---222--0-2222--000-0--3333-222-----------

e----------------------------------------------------------------
b----------------------------------------------------------------
g----------------------------------------------------------------
d----------------------------------------------------------------
a----------------------------------------------------------------
e-0-3-12-10-7--5--7-5-3-0-3-2------------------------------------
[ Tab from: http://www.guitartabs.cc/tabs/m/misc_television/james_bond_tab.html ]
e----------------------------------------------------------------
b----------------------------------------------------------------
g----------------------------------------------------------------
d----------------------------------------------------------------
a----------------------------------------------------------------
e-0-3-12-10-7--5--7-5-3-0-2-0------------------------------------

e----------------------------------------------------------------
b----------------------------------------------------------------
g----------------------------------------------------------------
d----------------------------------------------------------------
a----------------------------------------------------------------
e--00-0202-33-0202-00-0202-33-0202-00-0202-33-0202---------------

e----------------------------------------------------------------
b----------------------------------------------------------------
g----------------------------------------------------------------
d----------------------------------------------------------------
a----------------------------------------------------------------
e--77-0-77-0-77777-12---------------------------------------------------------
Comments