Misc Television - Insomniac Theme Chords & Tabs

 

Insomniac Theme Chords & Tabs

Misc Television Chords & Tabs

Version: 1 Type: Tab 0 ratings
1 star 2 stars 3 stars 4 stars 5 stars
comments

Insomniac Theme Tab

By: KrazyKurtKuomos

There are many versions played in the show(some with banjos) but this is the one that 
in the beginning

                                     INSOMNIAC
[ Tab from: http://www.guitartabs.cc/tabs/m/misc_television/insomniac_theme_tab.html ]
e------------------------------------|
B--0-3-2---0-------------------------|
G--------3-----------------5h7-5-4~--|
D------------4-4b--4-3-4-7-----------|
A------------------------------------|
E------------------------------------|

e------------------------------------|
B------------------------------------|
G-2-1-2-4-5-7-8~---9---7-5-1h2-4-2~--| You can use whammy bar here for better
D------------------------------------| sound
A--------------------7---------------|
E------------------------------------|

Repeat all again

You can also play this song a lot higher if you want just use a capo or something
Comments