Misc Television - Golden Girls Chords & Tabs

 

Golden Girls Chords & Tabs

Misc Television Chords & Tabs

Version: 1 Type: Bass Tab 0 ratings
1 star 2 stars 3 stars 4 stars 5 stars
comments

Golden Girls Bass Tab

   
Theme from 'The Golden Girls'
tabbed for bass by Trevor Senter
Drop-D tuning. 
Yes, you heard right, 'Theme from Golden Girls, drop-d tuning'
I put the lyrics on top to help you along.
Don't blame me for mistakes, and feel free to sing!
              thank you for being a friend
              travel down the road and back again
G|-------------------------------------------------
D|-------0-0---------------------------------------
A|--0-2--------------------------------------------
D|-------------------------------------------------
            your heart is true, you're a pal......
G|-------------------------------------------------
D|-------0--------------------------------------0-0
A|--0-2-----2-------------------------------0-2----
D|-------------2-----------------------------------
               and if you threw a party
G|-------------------------------------------------
D|-------------------------------------------------
A|-0h2-5--4--2---------------------0---------------
D|-------------------------------------------------
  invited everyone you knew
G|-------------------------------------------------
D|-------------------------------------------------
A|-------------------------------------------------
D|---5------------------4--------------------------
  you would see the biggest gift would be from me
G|-------------------------------------------------
D|-------------------------------------------------
A|-0---------5----------------2-----------------0--
D|-------------------------------------------------
  and the card attatched would say, 'thank you for being a friend'
G|-------------------------------------------------
D|---------4---2-----------------------------------
A|-------------------5----2----0-------------------
D|-------------------------------------------------

G|-------------------------------------------------
D|--0-------0--------------------------------------
A|-------0-----4---2---0---------------------------
D|-------------------------0-----------------------
[ Tab from: http://www.guitartabs.cc/tabs/m/misc_television/golden_girls_btab.html ]
Comments