Misc Television - Eastenders Theme Chords & Tabs

 

Eastenders Theme Chords & Tabs

Misc Television Chords & Tabs

Version: 1 Type: Tab 0 ratings
1 star 2 stars 3 stars 4 stars 5 stars
comments

Eastenders Theme Tab

-------------------------------------------------------------------------------
			     Eastenders Theme                              
-------------------------------------------------------------------------------
Tabbed by: metalgeardave
Email: metalgeardave@hotmail.com

Tuning: Standard EADGBE

Basically this song is played in the key of C
[ Tab from: http://www.guitartabs.cc/tabs/m/misc_television/eastenders_theme_tab.html ]
E|-------------------------------------------------------------|
B|-------------------------------------------------------------|
G|-----------2-------------------------------------------------|
D|-----2-3-5---3------3-2--------------------------------------|
A|-3-5--------------------5-3-3--------------------------------|
E|-------------------------------------------------------------|

E|-------------------------------------------------------------|
B|-------------------------------------------------------------|
G|-------------------------------------------------------------|
D|-------5-----------------------------------------------------|
A|-----3---3-5-------------------------------------------------|
E|-3-3---------------------------------------------------------|
Comments