Misc Television - Duck Tales Theme Chords & Tabs

 

Duck Tales Theme Chords & Tabs

Misc Television Chords & Tabs

Version: 1 Type: Tab 0 ratings
1 star 2 stars 3 stars 4 stars 5 stars
comments

Duck Tales Theme Tab

   
Duck Tales theme
Tabbed by springwaffle

  Intro
e-------------------------
b-------------------------
g-------------------------
d----2----2-----2------2--
a-------------------------
e-0----0-----0----0--0----

  Verse 1
e-----------------------------------------------------------------------
b-----------------------------------------------------------------------
g-----------------------------------------------------------------------
d-------------0-0---------------------------------0-0--------0-----0----
a-------2--4------4-2-0--0-----0------------2--4------4-2-0-----4-----4-
e-0--4----------------------4-----4---0--4------------------------------
  Life is like a hurri-cane...

e----------------------------------
b----------------------------------
g-------------------------1--------
d-------------------2--4-----4-2---
a----0--4-4--2---4---------------4-
e-2--------------------------------
  Might solve a mystery...
[ Tab from: http://www.guitartabs.cc/tabs/m/misc_television/duck_tales_theme_tab.html ]
  Chorus 1         C       D
e|--------------|-------------------|--------
b|*--------0----|------------------*|--------
g|-----------1--|-------------------|--------
d|--2-2--2------|--2-0---0-2-0---0--|-2-2----
a|*-2-2---------|------3-------3---*|-2-2----
e|--0-0---------|-------------------|-0-0----

  Verse 2
e---------------------------------------------------------------------
b---------------------------------------------------------------------
g------1---------------------1-----1--2--1-------------1--3--1-----1--
d-222-----2---------2---2-2-----2-----------2---4-4-4-----------4-----
a------------2-2-4----------------------------------------------------
e---------------------------------------------------------------------
  DDD-Danger, watch behind you...

  Chorus 2         D       E      x3                
e|--------------|-------------------|---------------
b|*--------2----|------------------*|--------2------
g|-----------3--|-------------------|----------3----
d|--4-4--4------|--4-2-0-2-4-2-0-2--|-4-4--4-----4--
a|*-4-4---------|------------------*|-4-4--------4--
e|--2-2---------|-------------------|-2-2--------2--

Corrections/comments/etc. can be sent to: springwaffle@comcast.net
Comments