Misc Television - Duck Tales Chords & Tabs

 

Duck Tales Chords & Tabs

Misc Television Chords & Tabs

Version: 2 Type: Tab 0 ratings
1 star 2 stars 3 stars 4 stars 5 stars
comments

Duck Tales Tab

   
                                              DUCK TALES
                                                THEME

Guitar 1:
-------------------|------------------------------------------------------
----------------x5-|------------------------------5----------------5------
-------------------|---7---7---7---------4---4------------4---4-----------
---7---7---7--7-7--|----------------------------2---2------------2---2-4--
-------------------|-5---5---5---5-5-4-2---2----------4-2---2-------------
-5---5---5--5------|------------------------------------------------------

------------------------------------|---------------------------------------------------------------
------------------------x2----------|---------------------------------------------------------------
------------------------------------|--------------------4--4---6--6-----------------6--6---6-8-10--
---7---7---7---------3---3---5---5--|---7---7---7----------------------5--5---7--7------------------
------------------------------------|---------------2-4--2--2---4--4-----------------4--4---4-6-8---
-5---5---5---5-5-3-1---1---3---3----|-5---5---5---5--------------------3--3---5--5------------------

---------------------------------------------------|-----------
------------------------------------------------x3-|-----------
-11-11-11-11-11-1111-11-9--7--7--7--7--9--9--9--9--|-11-11-----
---------------------------------------------------|--------4--
-9--9--9--9--9--9-9--9--7--5--5--5--5--7--7--7--7--|-9--9------
---------------------------------------------------|--------2--
[ Tab from: http://www.guitartabs.cc/tabs/m/misc_television/duck_tales_tab_ver_2.html ]
Guitar 2:
--------------------------------------------------------------------------------------5-7--9-9-7--5----5-5--|----12-9--5-3-1-3-5-3-1-3--5-5--|
------5--7--8-8-7-5---------------------5--7--8-8-7-5----8-7--8-7----3-5--7-7-5-7---7---------------7-------|-10-----------------------------|
---6----------------7--7-6--7-6------6----------------7------------4-----------------------------------2-2--|---------------------------2-2--|
7---------------------------------7----------------------5-6--5-6-------------------------------------------|---x2---------------------------|
-----------------------5-4--5-4-----------------------------------------------------------------------------|--------------------------------|
------------------------------------------------------------------------------------------------------------|--------------------------------|

-5-5-9-7--------5--5-9--5--9-10-9-5---7-9-9-7-9--11-9-7-9-----|----9-6-----------------------|---9-6-14--
----------5-5-7-------------------------------------------7-7-|--7------7-5---5-7-5---5-7-7--|-7---------
--------------------------------------------------------------|-------------7-------7--------|-----------
----------------------------------------------------------4-4-|-------------------------4-4--|-----------
--------------------------------------------------------------|------------------------------|-----------
--------------------------------------------------------------|------------------------------|-----------


Life is like a hurricane, here in Duckberg
Racecars, lasers, airplanes, it's a duckblur
Might solve the mystery or rewrite history

Duck Tales, woohoo
Everyday they´re out there making 
Duck Tales, woohoo
Tales of every *** bad in the Duck Tales

D-D-D-danger, looks behind you
Theres a stranger, at *** find you
What to do, just grab on to some

Duck Tales, woohoo
Everyday they´re out there making 
Duck Tales, woohoo
Tales of d*** bad in the Duck Tales

Not *** tales or captain tales but
Duck Tales, woohoo


If you have the correct lyrics, no matter what language, send them to me. 
By the way, who wrote this song?

/ metal_up_your_ass@2die4.com
Comments