Misc Television - Diagnosis Murder Theme Chords & Tabs

 

Diagnosis Murder Theme Chords & Tabs

Misc Television Chords & Tabs

Version: 1 Type: Tab 0 ratings
1 star 2 stars 3 stars 4 stars 5 stars
comments

Diagnosis Murder Theme Tab

Diagnosis Murder Intro

This is my first tab, quickly worked out, dont blame me if its wrong,
but some one needed to tab this!
Long live Dick Van Dyke


e-------------------------------------------------------------------| 
B-------------------------------------------------------------------| 
G--14-15-14-15-12-------14-------14-15-14-15-12----------12---------| 
D-----------------12-11-------------------------12-8----------------| 
A-------------------------------------------------------------------| 
E-------------------------------------------------------------------| 
[ Tab from: http://www.guitartabs.cc/tabs/m/misc_television/diagnosis_murder_theme_tab.html ]
e-------------------------------------------------------------------| 
B--------------18-17-16----15-14----14-15---------------------------| 
G--14-15-14-15------------------------------------------------------| 
D-------------------------------------------------------------------| 
A-------------------------------------------------------------------| 
E-------------------------------------------------------------------| 

e-------------------------------------------------------------------| 
B---------------------------------------S-19-20---------------------| 
G---14-15-14-15-14--------------------------------------------------| 
D------------------15-12-14-----------------------------------------| 
A-------------------------------------------------------------------| 
E-------------------------------------------------------------------| 

Peace
(Myles and Nick)
Comments