Misc Television - Crank Yankers Theme Chords & Tabs

 

Crank Yankers Theme Chords & Tabs

Misc Television Chords & Tabs

Version: 3 Type: Tab 0 ratings
1 star 2 stars 3 stars 4 stars 5 stars
comments

Crank Yankers Theme Tab

   
This is most of the beginning of the tune used in Crank Yankers. This is not the piano 
You can hear this before some of the calls.

s = slide

[ Tab from: http://www.guitartabs.cc/tabs/m/misc_television/crank_yankers_theme_tab_ver_3.html ]
----------------------------------------------------------------------|
----------------------------------------------------------------------|
----------------------------------------------------------------------|
----------------------7----------------7------------------------------|
-----9-9-7---5-7-7s9-----9-7--5-7-7s9-----9-7-5-2-0-------------------|
----------------------------------------------------------------------|
c'mon c'mon cuz were having a ball..................
------------------------------------------------------------------------|
------------------------------------------------------------------------|
------------------------------------------------------------------------|
----------------------7----------------7--------------------------------|
-----9-9-7---5-7-7s9-----9-7--5-7-7s9-----9-7-5-2-4-5-------------------|
------------------------------------------------------------------------|
c'mon c'mon you can say what you want................
------------------------------------------------------------------------|
------------------------------------------------------------------------|
------------------------------------------------------------------------|
-----------2------------------2--------2---------2---2------------------|
----5-4-5-----5-4-5-2---5-4-5----5-4-5----5-4-5----5--------------------|
------------------------------------------------------------------------|
But it doesn't really matter...................
------------------------------------------------------------------------|
------------------------------------------------------------------------|
------------------------------------------------------------------------|
-------5-7-7s8-7--5---5---7-5------5-7-7-7-5---5------------------------|
----s7--------------7---7-----7--7-----------7--------------------------|
------------------------------------------------------------------------|
Expense of others maybe even your mother................


lyrics to the opening

C'mon C'mon
Cuz were having a ball,
We're just makin' some calls to strangers.
C'mon C'mon
You can say what you want,
And they'll never know if you're deranged or what.
But it doesn't really matter,
No, it doesn't really matter,
Cuz we'll all be doubled over with laughter,
At the expense of others,
Maybe even your mother,
Won't you join the Crank Yankers tonight
CRANK YANKERS!

Enjoy
Comments