Misc Television - Crank Yankers Theme Chords & Tabs

 

Crank Yankers Theme Chords & Tabs

Misc Television Chords & Tabs

Version: 2 Type: Tab 0 ratings
1 star 2 stars 3 stars 4 stars 5 stars
comments

Crank Yankers Theme Tab

-------------------------------------------------------------------------------
			     Crank Yankers Theme
-------------------------------------------------------------------------------
Tabbed by: Slick52790- thanks to james!
Email:slick52790@aol.com

Tuning: standard

Intro- Listen to song for rythm

e|-7--7--5--3--5--7-10-7--5--3--5--7--10--7--5--3--0-------------------------|
B|----------------------------------------------------3----------------------|
G|---------------------------------------------------------------------------|
D|---------------------------------------------------------------------------|
A|---------------------------------------------------------------------------|
E|---------------------------------------------------------------------------|

e|-7--7--5--3--5--7--10--7--5--3--5--7--10--7--5--3--0-----2-----------------|
B|---------------------------------------------------------------------------|
G|---------------------------------------------------------------------------|
D|---------------------------------------------------------------------------|
A|---------------------------------------------------------------------------|
E|---------------------------------------------------------------------------|

Bridge

e|--3--3--2--3--5--3--2--3--0----3--3--2--3--5--3--2-3-5--3--5--3--5--7------|
B|---------------------------------------------------------------------------|
G|---------------------------------------------------------------------------|
D|---------------------------------------------------------------------------|
A|---------------------------------------------------------------------------|
E|---------------------------------------------------------------------------|
[ Tab from: http://www.guitartabs.cc/tabs/m/misc_television/crank_yankers_theme_tab_ver_2.html ]
e|-5--7--5--10--7--5--3--3--7--7--5--3--0--3---------------------------------|
B|---------------------------------------------------------------------------|
G|---------------------------------------------------------------------------|
D|---------------------------------------------------------------------------|
A|---------------------------------------------------------------------------|
E|---------------------------------------------------------------------------|
 Power Chord Part 
e|---------------------------------------------------------------------------|
B|---------------------------------------------------------------------------|
G|---------------------------------------------------------------------------|
D|-5555555555555555--10101010101010101010101010101010----play this twice-----|
A|-5555555555555555--10101010101010101010101010101010------------------------|
E|-3333333333333333--8 8 8 8 8 8 8 8 8 8 8 8 8 8 8 8-------------------------|

Next play this twice

e|---------------------------------------------------------------------------|
B|---------------------------------------------------------------------------|
G|---------------------------------------------------------------------------|
D|-22222222--1010101010101010------------------------------------------------|
A|-22222222--1010101010101010------------------------------------------------|
E|-00000000--8 8 8 8 8 8 8 8-------------------------------------------------|

   Play this one more time
e|---------------------------------------------------------------------------|
B|---------------------------------------------------------------------------|
G|---------------------------------------------------------------------------|
D|-5555555555555555--10101010101010101010101010101010------------------------|
A|-5555555555555555--10101010101010101010101010101010------------------------|
E|-3333333333333333--8 8 8 8 8 8 8 8 8 8 8 8 8 8 8 8-------------------------|

  Then

e|-3--------------------------------------------------------------------------|
B|-3--------------------------------------------------------------------------|
G|-0--------------------------------------------------------------------------|
D|-0--------------------------------------------------------------------------|
A|-2--------------------------------------------------------------------------|
E|-3--------------------------------------------------------------------------|
===============================================================================
Comments