Misc Television - Coors Light Wingman Chords & Tabs

 

Coors Light Wingman Chords & Tabs

Misc Television Chords & Tabs

Version: 1 Type: Tab 1 rating
1 star 2 stars 3 stars 4 stars 5 stars
comments

Coors Light Wingman Tab

   
Title: Wingman
By: that Coors Light commercial
Tabbed by: Andy Moya


Intro:
	    This chick's rockin' your bro on the dancefloor...

e-----------------0-------
B--------------3----------
G-----------2-------------
D--------0----------------
A-------------------------
E-------------------------


	   But she's towin'...

e--------0----0----3----3----0----0----3----3---
B--------3----3----3----3----3----3----3----3---
G--------2----2----0----0----2----2----0----0---
D--------0----0----0----0----0----0----0----0---
A------------------2----2--------------2----2---
E------------------3----3--------------3----3---


	   Who's talking bout herself...

e--------------------------------------------------------
B--------3----3-33----2----2-2---------------------------
G--------4----4-44----2----2-2----3----3--3--3--3--3--3--
D--------4----4-44----2----2-2----4----4--4--4--4--4--4--
A--------2----2-22----0----0-0----4----4--4--4--4--4--4--
E---------------------------------2----2--2--2--2--2--2--


	   So buy her a beer...

e------------------0----0-------------------------------
B------------------3----3----2----2---2---2--2-2-2------
G--------4----4----2----2----2----2---2---2--2-2-2------
D--------5----5----0----0----2----2---2---2--2-2-2------
A--------5----5--------------0----0---0---0--0-0-0------
E--------3----3-----------------------------------------

[ Tab from: http://www.guitartabs.cc/tabs/m/misc_television/coors_light_wingman_tab.html ]
	   You're taking one...

e------------------0----0------------
B------------------3----3----2----2--
G--------4----4----2----2----2----2--
D--------5----5----0----0----2----2--
A--------5----5--------------0----0--
E--------3----3----------------------


	So your buddy can live the dream...

e---------------0---------3----
B---------------3----2----3----
G---------------2----2----0----
D---------------0----2----0----
A--------------------0----2----
E-------------------------3----


		Wing maaaaaaaaaaaaaaaaaaan!!!

e-------------------------------0----0--------
B-------------------------------3----3----2---
G---------3--3--3--3--4----4----2----2----2---
D---------4--4--4--4--5----5----0----0----2---
A---------4--4--4--4--5----5--------------0---
E---------2--2--2--2--3----3------------------


Intro

This chick's rockin' your bro on the dance floor...

D		   G
But she's towin an anchor
D           G       
A junior investment banker
Bm		  A		   F#
Who's talkin bout herself, and not much moooooore!

G	     D	
So buy her a beer,			
 			 A
that's the reason you're here,

mighty wingman

G	      D		  A
You're taking one for the team,
	D	  A	   G	   	F#
So your buddy can live the dream.
    G	D    A
Wingmaaaaaaaaaan!!!
Comments