Misc Television - Community - This Is The Last Time Chords & Tabs

 

Community - This Is The Last Time Chords & Tabs

Misc Television Chords & Tabs

Version: 1 Type: Tab 0 ratings
1 star 2 stars 3 stars 4 stars 5 stars
comments

Community - This Is The Last Time Tab

   
This is the last time    *s03e15 season 3 episode 15*



community



TRANSCRIBED BY RUDY GUZMAN



guzman_84@hotmail.com




         This is the last time                       This is the last time
e:-----------------------------------------------------------------------|
B:-----------------------------------------------------------------------|
G:-0-0-0-0-0-0-0-0-0-0-0-------------------------------------------------|
D:------------------------4-4-4-4-4-4-4-4-4-4-4-4--2-2-2-2-2-2-2-2-2-2-2-|
A:-----------------------------------------------------------------------|
E:-----------------------------------------------------------------------|

   I'll see you smile
e:-----------------------|
B:-----------------------|
G:-----------------------|
D:-1-1-1-1-1-1-1-1-1-1-1-|
A:-----------------------|
E:-----------------------|
[ Tab from: http://www.guitartabs.cc/tabs/m/misc_television/community_this_is_the_last_time_tab.html ]
   goodbye        my friend      I'll miss you every night
e:----------------2--2-2--2-2-2----------------------0--0-0-0-0-0-0-0-0-|
B:-1--1-1--1-1-1--3--3-3--3-3-3----------3-3-3--3-3--0--0-0-0-0-0-0-0-0-|
G:-0--0-0--0-0-0--2--2-2--2-2-2-----0-0--0-0-0--0-0--0--0-0-0-0-0-0-0-0-|
D:-2--2-2--2-2-2--0--0-0--0-0-0--0--0-0--0-0-0--0-0--2--2-2-2-2-2-2-2-2-|
A:-3--3-3--3-3-3-----------------2--2-2--2-2-2--2-2--2--2-2-2-2-2-2-2-2-|
E:-------------------------------3--3-3--3-3-3--3-3--0--0-0-0-0-0-0-0-0-|

                   goodbye
e:--------------------------------------------------------------|
B:-------1------3--------3--------------------------------------|
G:-----0--------0--------0--------------------------------------|
D:---2----------4--------0--------------------------------------|
A:-3--------3/5----------2--------------------------------------|
E:-----------------------3--------------------------------------|



hillo son mex

02/11/12
Comments