Misc Television - Colbert Report Theme Chords & Tabs

 

Colbert Report Theme Chords & Tabs

Misc Television Chords & Tabs

Version: 1 Type: Tab

Colbert Report Theme Tab

                  The Colbert Report Starring Stephen Colbert
                              Misc Televison

intro:
|-----------------|
|-----------------|
|-----------------|
|-----------------|
|-0-----0--2------|
|----0--------0---|
[ Tab from: http://www.guitartabs.cc/tabs/m/misc_television/colbert_report_theme_tab.html ]
There are two ways to do the chorus:
1st Way:
|--------------------------------|--------------------------------|
|--------------------------------|--------------------------------|
|--------------------------------|--------------------------------|
|----1---2---1-------1---2---1---|--------------------------------|
|-2----2---2---2--2----2---2---2-|--------------------------------|
|--------------------------------|-0--4p0-5p0-4p0--0--4p0-5p0-4p0-|

I found the second way to be easier and it sounded better.
Put a capo on the guitar upside-down, so that it is not holding down
the thicker E-string
|--------------------------------|--------------------------------|
|--------------------------------|--------------------------------|
|--------------------------------|--------------------------------|
|--------------------------------|--------------------------------|
|-2--6p2-7p2-6p2--2--6p2-7p2-6p2-|--------------------------------|
|--------------------------------|-0--4p0-5p0-4p0--0--4p0-5p0-4p0-|
|