Misc Television - Chichago Bulls Pump Up Song Chords & Tabs

 

Chichago Bulls Pump Up Song Chords & Tabs

Misc Television Chords & Tabs

Version: 1 Type: Tab 0 ratings
1 star 2 stars 3 stars 4 stars 5 stars
comments

Chichago Bulls Pump Up Song Tab

Not sure exactly who wrote this song. But it's catchy tune. I see a version of this song tabbed out,
but I don't like where they say to play it. So I tabbed my way of playing this song.

e:--------7-----------5----|-------7-----------5---------|
B:--5--7-----0--5--7-----0-|-5--7-----0--5--7-----0------|
G:-------------------------|-----------------------------|
D:-------------------------|-----------------------------|
A:-------------------------|-----------------------------|
E:-------------------------|-----------------------------|
[ Tab from: http://www.guitartabs.cc/tabs/m/misc_television/chichago_bulls_pump_up_song_tab.html ]
This is the main Riff. It is repeated through the entire song.

The Rhythm: (Distorted guitar + bass)

e:-(7)----(3)---(0)---(7)--|
B:-(7)----(3)---(0)---(7)--|
G:-(8)----(4)---(1)---(8)--|
D:--9------5-----2-----9---|        Repeat this through the entire song.
A:--9------5-----2-----9---|        One chord should be struck every 8th beat. 
E:--7------3-----0-----7---|        The rhythm guitar could also be tuned down to drop B.

If you would like to know what the strings would be tuned to if you were to play in B, send me a message. 



Neo
neo.raydants@gmail.com
Comments