Misc Television - Celebrity Deathmatch Theme Song Chords & Tabs

 

Celebrity Deathmatch Theme Song Chords & Tabs

Misc Television Chords & Tabs

Version: 1 Type: Tab 0 ratings
1 star 2 stars 3 stars 4 stars 5 stars
comments

Celebrity Deathmatch Theme Song Tab

(repeat twice)
|--------------------------------------------------------------------|
|--------------------------------------------------------------------|
|--------------------------------------------------------------------|
|-2-----2-0-2-3-2---------2-0-2-3-2---------2-0-2-3-2----------------|
|-2-----2-0-2-3-2---------2-0-2-3-2---------2-0-2-3-2----------------|
|-2-----2-0-2-3-2---------2-0-2-3-2---------2-0-2-3-2----------------|

[ Tab from: http://www.guitartabs.cc/tabs/m/misc_television/celebrity_deathmatch_theme_song_tab.html ]
|--------------------------------------------------------------------|
|--------------------------------------------------------------------|
|--------------------------------------------------------------------|
|-2-0-2-3------------------------------------------------------------|
|-2-0-2-3------------------------------------------------------------|
|-2-0-2-3-(pm)-4-4-4-5-5-5-------------------------------------------|


(then it ends)
|--------------------------------------------------------------------|
|--------------------------------------------------------------------|
|--------------------------------------------------------------------|
|-0-2-2-2-7-6-5-------0-2--------------------------------------------|
|-0-2-2-2-7-6-5-------0-2--------------------------------------------|
|-0-2-2-2-7-6-5-------0-2--------------------------------------------|
Comments