Misc Television - Buffy The Vampire Slayer Chords & Tabs

 

Buffy The Vampire Slayer Chords & Tabs

Misc Television Chords & Tabs

Version: 1 Type: Tab 0 ratings
1 star 2 stars 3 stars 4 stars 5 stars
comments

Buffy The Vampire Slayer Tab

This is the buffy theme tune. Its really good and impressive if u can play it. 
Any comments to: chippywrapper@hotmail.com

The first couple of bars of this are played on a keyboard,
then slide your plectrum down the strings (known as a "pick scrape") to get the proper effect.
No verse or chorus, just play straight through.

|----------------|----------------|----------------|----------------| 
|----------------|----------------|----------------|----------------| 
|9---------------|(9)----11---12--|7---------------|(7)-----------7-| 
|----------------|----------------|----------------|----------------| 
|7---------------|(7)-----9---10--|5---------------|(5)-----------5-| 
|----------------|----------------|----------------|----------------| 

|----------------|----------------|----------------|----------------| 
|----------------|----------------|----------------|----------------| 
|7---------------|(7)-----9--11---|7---------------|(7)-------------| 
|----------------|----------------|----------------|----------------| 
|5---------------|(5)-----7---9---|5---------------|(5)-------------| 
|----------------|----------------|----------------|----------------|

The next section contains some strummed chords, and there's not enough space to show every strum so use your imagination a bit. I think it's two strums to every one I've shown.

|----------------|----------------|----------------|----------------| 
|----------------|----------------|----------------|----------------| 
|9---9---9---9---|9---9---11--12--|----------------|----------------| 
|----------------|----------------|12--12--12--12--|12--12--12--12--| 
|7---7---7---7---|7---7----9--10--|----------------|----------------| 
|----------------|----------------|10--10--10--10--|10--10--10--10--|
[ Tab from: http://www.guitartabs.cc/tabs/m/misc_television/buffy_the_vampire_slayer_tab.html ]
|----------------|----------------|----------------|----------------| 
|----------------|----------------|----------------|----------------| 
|----------------|---------9--11--|7---7---7---7---|7---7---7---7---| 
|12--12--12--12--|12--12----------|----------------|----------------| 
|----------------|---------7---9--|5---5---5---5---|5---5---5---5---| 
|10--10--10--10--|10--10----------|----------------|----------------|

Then back to a rhythm that I can show properly:

|----------------|----------------|----------------|----------------| 
|10--------------|(10)--10/11---10|8---------------|(8)---------8-7-| 
|----------------|----------------|----------------|----------------| 
|7---------------|-(7)---7/-9----7|5---------------|(5)---------5-4-| 
|----------------|----------------|----------------|----------------| 
|----------------|----------------|----------------|----------------| 

...and then another pick scrape. The ending is fairly quick, so again use your imagination - it's not to hard to pick out the rhythm.

|----------------|--------10--12--|----------------|--------10--12--|
|12--12--12--12--|12--12----------|12--12--12--12--|12--12----------|
|----------------|----------------|----------------|----------------|
|----------------|----------------|----------------|----------------|
|----------------|----------------|----------------|----------------|
|----------------|----------------|----------------|----------------|

|----------------|------------10--|----------------|----------------|
|10--10--10--10--|10--10--12------|10--10--10--10--|10--10--10--10--|
|----------------|----------------|----------------|----------------|
|----------------|----------------|----------------|----------------|
|----------------|----------------|----------------|----------------|
|----------------|----------------|----------------|----------------| 

|----------------|----------------|----------------|----------------|
|11--11--11--11--|11--11--11--11--|12--------------|----------------|
|----------------|----------------|----------------|9-------------\-|
|----------------|----------------|----------------|9-------------\-|
|----------------|----------------|----------------|7-------------\-|
|----------------|----------------|----------------|--------------\-|

|----------------|
|----------------|
|2---------------|
|2---------------|
|2---------------|
|0---------------|

Although you can play this last chord 
Comments