Misc Television - Buffy Chords & Tabs

 

Buffy Chords & Tabs

Misc Television Chords & Tabs

Version: 2 Type: Tab 0 ratings
1 star 2 stars 3 stars 4 stars 5 stars
comments

Buffy Tab

song: buffy the vampire slayer
tabbed by jeff h.(y2jc_28@yahoo.com)

intro:
e---------------
b---------------
g---------------
d---------------
a--0---0--2-3---
e-------------1~

e-----------------------------
b-----------------------------
g-----------------------------
d-----------------------------
a--0---0--2-3-----------0-2---
e-------------1----3~-3-----3~
[ Tab from: http://www.guitartabs.cc/tabs/m/misc_television/buffy_tab_ver_2.html ]
e---------------------------------------------------------
b---------------------------------------------------------
g------------------------------------0--2------------0--2-
d---------------------------2(5x)--2-------2(5x)--2-------
a--3s5~--5s7--3---3-2-----2-------------------------------
e---------------------------------------------------------

e------------------------------------------------
b------------------------------------------------
g------------------------------------------------
d--0(5x)--0--3--5---0(7x)---1(5x)----------------
a----------------------------------0~---0~----0~~
e------------------------------------------------
that's all

Comments