Misc Television - Budweiser Theme Chords & Tabs

 

Budweiser Theme Chords & Tabs

Misc Television Chords & Tabs

Version: 1 Type: Tab 0 ratings
1 star 2 stars 3 stars 4 stars 5 stars
comments

Budweiser Theme Tab

Budweiser Commercial Riff
Tuning: Drop D

I haven't seen this commercial in a long time but I still play this riff alot when my
guitar is in drop D, it's a fun song. A friend of minre showed me to play it.

e|-------------------------------------------------| 
b|------3---3-3-3----------------------------------|
g|------2---2/3\2----------------------------------| 
d|----------------------0h3/5---5---5h6--3---3h5--0| 
A|----------------------0h3/5---5---5h6--3---3h5--0| 
e|--0-------------------0h3/5---5---5h6--3---3h5--0|  
[ Tab from: http://www.guitartabs.cc/tabs/m/misc_television/budweiser_theme_tab.html ]
e|----------------------------------------| 
B|---------------------3-3----------------|
G|---------------------2/3----------------| 
D|--0---0-5/12--0-----------------0h3/5---|
A|--0---0-5/12--0-----------------0h3/5---|
E|--0---0-5/12--0---0-------------0h3/5---|
 
e|----------------------------------------------------------| 
B|----------------------------------------------------------| 
G|----------------------------------------------------------| 
A|-----------------------4----------------------------------| 
D|---3-4-5-----3-4-5----------5-4-3-------------------------| 
E|------------------------------------------5-3-0-----------|
Comments