Misc Television - Budweiser Commercial Riff Chords & Tabs

 

Budweiser Commercial Riff Chords & Tabs

Misc Television Chords & Tabs

Version: 1 Type: Tab 0 ratings
1 star 2 stars 3 stars 4 stars 5 stars
comments

Budweiser Commercial Riff Tab

Budweiser Commcercial

S-Slide
H-Hammer on
V-Vibrate


[ Tab from: http://www.guitartabs.cc/tabs/m/misc_television/budweiser_commercial_riff_tab.html ]
E-----------------------------------------------------------------------
B-----------------------------------------------------------------------
G-------7--7--------12------------------------------------------------
D-0-----7-----7h8---12----0--3-s-5----5---5-s-6--3---3-s-5------------
A-0-----------------------0--3-s-5----5---5-s-6--3---3-s-5---------
E-0-----------------------0--3-s-5----5---5-s-6--3---3-s-5---------


Stomp on Pedal

E----------------------------------------------------------------------
B----------------------------------------------------------------------
G----------------------------------------------------------------------
D------------------------3--------------------------------------------
A-3-4-5V---3-4-5v--3-4-5---5-4-3-0-------------------------------------
E----------------------------------5--3--------------------------------

Sk8er4life666
Comments