Misc Television - Batman Chords & Tabs

 

Batman Chords & Tabs

Misc Television Chords & Tabs

Version: 2 Type: Tab 2 ratings
1 star 2 stars 3 stars 4 stars 5 stars
comments

Batman Tab

   

Music by: Danny Elfman
Tabbed by: Paul Edland

Main Theme:

Lick 1 (Repeats throughout song)

E-------------------------|-------------------------|-------------------------|
B-------------------------|-8-----------------------|-7-----------------------|
G-4-----6-----7-----------|-7-----------------------|-4-----------------------|
D-4-----4-----4-----------|-5-----------------------|-4-----------------------|
A-2-----4-----5-----------|-5-----------------------|-------------------------|
E-------------------------|-------------------------|-------------------------|



Below is a list of the different endings to Lick 1 that a played at various parts
of the movie for different dramatic effect. The above 3 measures stay the same though.
Just play the alternative endings at the end of Lick 1.

Alt Ending 1 to Lick 1 (Repeat Lick 1)
[ Tab from: http://www.guitartabs.cc/tabs/m/misc_television/batman_tab_ver_2.html ]
  Bm          G             Bm
E-2-----------3-----------|-2-----------------------|
B-----3-----------3-------|-------------------------|
G---------4-----------4---|-------------------------|
D-------------------------|-4-----------------------|
A-2-----------5-----------|-2-----------------------|
E-------------------------|-------------------------|

Alt Ending 2 to Lick 1 (You can repeat Lick 1 after this but I always go into Lick 2)

E-1-----------------------|
B-2-----------------------|
G-1-----------------------|
D-------------4-----------|
A-------------------------|
E-------------0-----------|



Action Theme

Lick 2

E-------------------------|-----3---2---------3-—-2---|
B-----------------------0-|-2-3---------0-2-3---------|
G-------------------------|---------------------------|
D-4-----------4-----------|---------------------------|
A-----2-2---2-----2-2-----|---------------------------|
E-------------------------|---------------------------|

Lick 2 Continued

E-------------------------|-----3-------2-----4---5---|
B-----------------------0-|-2-3-----3-----------------|
G-------------------------|---------------------------|
D-4-----------4-----------|-------------------6---7---| (Trumpet comes in!)
A-----2-2---2-----2-2-----|---------------------------| (Sorry. Don't know Trumpet Notes.)
E-------------------------|---------------------------|

Repeat the Lick 1 and slowly let the notes fade away.

			
Comments