Misc Television - Barney Miller Theme Chords & Tabs

 

Barney Miller Theme Chords & Tabs

Misc Television Chords & Tabs

Version: 1 Type: Bass Tab 0 ratings
1 star 2 stars 3 stars 4 stars 5 stars
comments

Barney Miller Theme Bass Tab

   
                            BARNEY MILLER (Bassline)


This is one of those bass lines every bassist should know.

You can download it in may formats from: http://www.sitcomsonline.com/barneymiller.html

Tabbed by: Scott Mutchler (smutchler@yahoo.com)

Gtr I (E A D G) - 'Bass'

  Q=170
 4/4
  Gtr I
  W          H.      E E   H.      E E   H.      E E
|----------|-------------|-------------|----------------|
|----------|-------------|-------------|----------------|
|----------|-------------|---------1-2-|-3-------3-5----|
|----------|-1-------3-4-|-5-----------|----------------|


  E E E E E E E E   H.      E E   H.      E E   H.      E E
|-----------------|-------------|-------------|-------------|
|-----------3-----|-------------|-------------|-------------|
|-6-5-3-------5-3-|-------------|---------1-2-|-3-------3-5-|
|-------4-5-------|-1-------3-4-|-5-----------|-------------|


  E E E E E E E E   H.      E E   H.      E E   H.      E E
|-----------------|-------------|-------------|-------------|
|-----------3-----|-------------|-------------|-------------|
|-6-5-3-------5-3-|-------------|---------1-2-|-3-------3-5-|
|-------4-5-------|-1-------3-4-|-5-----------|-------------|


  E E E E E E E E   H.      E E   H.      E E   H.      E E
|-----------------|-------------|-------------|-------------|
|-----------3-----|-------------|-------------|-------------|
|-6-5-3-------5-3-|-------------|---------1-2-|-3-------3-5-|
|-------4-5-------|-1-------3-4-|-5-----------|-------------|


  E E E E E E E E   Q  E S S Q  E E   E E Q  Q  Q    E E E E E E E E
|-----------------|-----------------|---3----------|------------------|
|-----------3-----|------2---3------|-----0--1--2--|-3-2-3---------3--|
|-6-5-3-------5-3-|---------------1-|--------------|------------------|
|-------4-5-------|-1---------------|--------------|---------1--------|


  E S S Q  Q  S S S S   E E E E E E E E   E E Q  Q  Q    E E E E E E E E
|---------------------|-----------------|---3----------|------------------|
|----------0--1---1---|-3-2-3-------3---|-----0--1--2--|-3---3---------2--|
|---1---1-------------|---------------1-|--------------|------------------|
|---------------------|---------1-------|--------------|---------1--------|

[ Tab from: http://www.guitartabs.cc/tabs/m/misc_television/barney_miller_theme_btab.html ]
  E E Q  E E Q    H.      E E   E E Q  Q  E E   E E E E E E E E
|---------------|-1-----------|-1---1---------|---5---5-6---6-7-|
|---------------|---------1-3-|---3-------1-3-|-6---------------|
|---------------|-------------|---------------|-----------------|
|---3-3--3-3-4--|-------------|---------------|-----------------|


  E E E E E E E E   H.      E E   E E E E Q  E E   E E E E E E E E
|---7-8-8-----1---|-1-----------|-1---1----------|-1-5---5-6---6-7-|
|---------1-3---3-|---------1-3-|---3--------1-3-|-----------------|
|-----------------|-------------|----------------|-----------------|
|-----------------|-------------|----------------|-----------------|


  E E Q  +S  S  E E E    E E Q  H
|---7-8--(8)------8-9-|-10-----------*|
|--------------10-----|--------------*|
|---------------------|--------------*|
|---------------------|--------------*|


Duration Legend
---------------
W - whole; H - half; Q - quarter; E - 8th; S - 16th; T - 32nd; X - 64th; a - acciaccatura
+ - note tied to previous; . - note dotted; .. - note double dotted
Uncapitalized letters represent notes that are staccato (1/2 duration)
Irregular groupings are notated above the duration line
Duration letters will always appear directly above the note/fret number it represents the
duration for.  Duration letters with no fret number below them represent rests.  Multi-
bar rests are notated in the form Wxn, where n is the number of bars to rest for.  Low
melody durations appear below the staff

Tablature Legend
----------------
 h   - hammer-on
 p   - pull-off
 b   - bend
 pb  - pre-bend
 r   - bend release (if no number after the r, then release immediately)
 /  - slide into or out of (from/to "nowhere")
 s   - legato slide
 S   - shift slide
  - natural harmonic
[n]  - artificial harmonic
n(n) - tapped harmonic
 ~   - vibrato
 tr  - trill
 T   - tap
 TP  - trem. picking
 PM  - palm muting
n/  - tremolo bar dip; n = amount to dip
 n  - tremolo bar down
 n/  - tremolo bar up
/n  - tremolo bar inverted dip
 =   - hold bend; also acts as connecting device for hammers/pulls
   - volume swell (louder/softer)
 x   - on rhythm slash represents muted slash
 o   - on rhythm slash represents single note slash

Misc Legend
-----------
 |  - bar
||  - double bar
||o - repeat start
o|| - repeat end
*|  - double bar (ending)
 :  - bar (freetime)
 $  - Segno
 &  - Coda
Tempo markers -  = BPM(8/16=s8/s16), where s8 = swing 8ths, s16 = swing 16ths


***************************************************************************************
* Generated using Power Tab Editor by Brad Larsen - http://powertab.guitarnetwork.org *
***************************************************************************************
Comments