Misc Television - Bananas In Pyjamas Chords & Tabs

 

Bananas In Pyjamas Chords & Tabs

Misc Television Chords & Tabs

Version: 1 Type: Tab 3 ratings
1 star 2 stars 3 stars 4 stars 5 stars
comments

Bananas In Pyjamas Tab

Bananas In Pyjamas
Yes, I got very bored and tabed out the childern's TV show theme. Sorry I have no life.

E---------------------------------------------
B---------------------------------------------
G-12-11-12---12-12-11-12--12-14---------------
D--------------------------------14-14-14-14--
A---------------------------------------------
E---------------------------------------------

Bananas in pyjamas are comming down the stairs

E---------------------------------------------
B---------------------------------------------
G-12-11-12---12-12-11-12--12-14---------------
D--------------------------------15-15-15-15--
A---------------------------------------------
E---------------------------------------------
[ Tab from: http://www.guitartabs.cc/tabs/m/misc_television/bananas_in_pyjamas_tab.html ]
Bananas in pyjamas are comming down in pairs

E---------------------------------------------
B---------------------------------------------
G-14-13-14--14-13-14--14-16-------------------
D----------------------------16-16-16-16------
A---------------------------------------------
E---------------------------------------------

Bananas in pyjamas are chasing teddybears

E---------------------------------------------
B----------------10-12------------------------
G-17/12-12-10-10-------12/17------------------
D---------------------------------------------
A----------------------------15-15-15-15------
E---------------------------------------------

'Cos on Tuesdays they will try to catch them unawares

Tabed by someone you will never meet. But, what the hell, my name is Ryan AKA woggie
Comments