Misc Television - Alton Towers Theme Chords & Tabs

 

Alton Towers Theme Chords & Tabs

Misc Television Chords & Tabs

Version: 1 Type: Bass Tab 0 ratings
1 star 2 stars 3 stars 4 stars 5 stars
comments

Alton Towers Theme Bass Tab

g|-------------------------------|
d|-------------------------------|
a|-------0-2--2-1--1-0--0--------|
e|-0-2-3-----3----2----1---------|
[ Tab from: http://www.guitartabs.cc/tabs/m/misc_television/alton_towers_theme_btab.html ]
g|-------------------------------|
d|-------------2-0-----0---------|
a|-------0-2--2----2-2-----------|
e|-0-2-3-----0------3------------|

g|-------------------------------|
d|--------------------0----------|
a|-4-1-4--5-2-5-4-1-4------------|
e|-------------------------------|

just repeat however many times you feel
ca also be played like that on guitar but dosnt sound to good
Comments