Misc Television - A Team Theme Chords & Tabs

 

A Team Theme Chords & Tabs

Misc Television Chords & Tabs

Version: 2 Type: Tab 0 ratings
1 star 2 stars 3 stars 4 stars 5 stars
comments

A Team Theme Tab


 THE A-TEAM THEME       TABBED BY PAUL DOCHERTY

 THIS IS HOW TO PLAY THE GREATEST THEME TO THE GREATEST
SHOW EVER.
 MY MATE SHOWED ME.


E--13----13---------------------13---15--13--11--10------------E
B----13-----10--11------10--13-----13---------------13--11--13-B
G------------------10----------------------------------------G
D------------------------------------------------------------D
A------------------------------------------------------------A
E------------------------------------------------------------E
[ Tab from: http://www.guitartabs.cc/tabs/m/misc_television/a_team_theme_tab_ver_2.html ]
E--13----13--------------------9--11----------------E
B----13-----10--11--13----9--11---------------------B
G---------------------10---------------1---3-------G
D--------------------------------------------1-----D
A--------------------------------------------------A
E--------------------------------------------------E
 
     Bend   Bend                        Bend   Bend    Bend
E---10-----10----------------13-----17-----17-----17----------E
B------11-----11--10--11--13------------18-----18---18--17--18-B
G-----------------------------------------------------------G
D-----------------------------------------------------------D
A-----------------------------------------------------------A
E-----------------------------------------------------------E


E------------------------------------------------E
B-------------------8--6-------------------------B
G--7-7-5-7-5-7-5-5--7--5--7-7-5-7-5-3-3-3-5------G
D--7-7-5-7-5-7-5-5--------7-7-5-7-5-3-3-3-5------D
A------------------------------------------------A
E------------------------------------------------E

any comments e mail me at  docojnr@talk21.com
Comments