Misc Television - A Team Chords & Tabs

 

A Team Chords & Tabs

Misc Television Chords & Tabs

Version: 2 Type: Tab 0 ratings
1 star 2 stars 3 stars 4 stars 5 stars
comments

A Team Tab

Title: A Team
Transcribed by: Mark Casey
Email: pennybridge_pioneer69@hotmail.com

Here is the A Team theme, NEARLY in it's entirety.
Standard tuning. Also, I made no attempt to display the rhythm. Listen to the song


-11-------11----------------------------11----13-11--9-8----------------------
------11--------9--11-------------11-------11------------11--9--11------------
------------------------8------12---------------------------------------------
------------------------------------------------------------------------------
------------------------------------------------------------------------------
------------------------------------------------------------------------------
                                                                              

---11-11----11--------------------------------8-9-----------------------------
---------11--------------------------------9-------there are 3 notes here-----
--------------------12-13----15--------11----------played by the strings------
--------------------------15----13--------------------------------------------
------------------------------------------------------------------------------
------------------------------------------------------------------------------
                                                                              
[ Tab from: http://www.guitartabs.cc/tabs/m/misc_television/a_team_tab_ver_2.html ]
-9--8------9---8----------------11--------------------------------------------
---------9------------8--9--11--------11--9-----11--9----9-8------------------
---------------------------------------------8----------------8-7-8-----------
------------------------------------------------------------------------------
------------------------------------------------------------------------------
------------------------------------------------------------------------------
 
and then for the full on distortion...                                    

------------------------------------------------------------------------------
------------------------------------------------------------------------------
----------------------7--5----------------------------------------------------
--7-7-5-7--5--7--5--5-7--5---7-7-5-7--5--3--3-3-5-----------------------------
--7-7-5-5--5--7--5--5-5--3---7-7-5-7--5--3--3-3-5-----------------------------
--5-5-3-5--3--5--3--3--------5-5-3-5--3--1--1-1-3-----------------------------
 

------------------------------------------------------------------------------
------------------------------------------------------------------------------
----------------------7--5----------------------------------------------------
--7-7-5-7--5--7--5--5-7--5---7-7-5-7--5--3--3-5-5-----------------------------
--7-7-5-5--5--7--5--5-5--3---7-7-5-7--5--3--3-5-5-----------------------------
--5-5-3-5--3--5--3--3--------5-5-3-5--3--1--1-3-3-----------------------------

Then there's a string bit that I can't tab out.

then go and play the intro once more, but with this ending:   


------------------------------------------------------------------------------
---9--8-----9--8-------9--11--13--15-16~~~~~----------------------------------
---------8--------------------------------------------------------------------
------------------------------------------------------------------------------
------------------------------------------------------------------------------
------------------------------------------------------------------------------
Comments