Misc Television - A Team Chords & Tabs

 

A Team Chords & Tabs

Misc Television Chords & Tabs

Version: 1 Type: Tab 0 ratings
1 star 2 stars 3 stars 4 stars 5 stars
comments

A Team Tab

Afraid I don't know the intro riff but here is the main chord sequence for the rock bit.



[ Tab from: http://www.guitartabs.cc/tabs/m/misc_television/a_team_tab.html ]
-------------------------------------------------------------------------------------
-------------------------------------------------------------------------------------
--------------------------------------7---5------------------------------------------
------7---7---5---7---5---7---5---5---7---5-------7---7---5---7---5---3---3---3---5--
------7---7---5---7---5---7---5---5---5---3-------7---7---5---7---5---3---3---3---5--
------5---5---3---5---3---5---3---3---------------5---5---3---5---3---1---1---1---3--
                                                        
x2                                                         
                                                          
                                                           
                                                                 
----------------------------------------------------------------------------------------
----------------------------------------------------------------------------------------
---------------------------------------12-10--------------------------------------------
------12--12--10--12--10--12--10--10---12-10------12--12--10--12--10--8---8---8---10----
------12--12--10--12--10--12--10--10---10--8------12--12--10--12--10--8---8---8---10----
------10--10---8--10---8--10---8---8--------------10--10---8--10---8--6---6---6----8----

x2

Just keep moving up the fret board as much as you like:
Comments