Misc Television - 3rd Rock Theme Chords & Tabs

 

3rd Rock Theme Chords & Tabs

Misc Television Chords & Tabs

Version: 1 Type: Tab 0 ratings
1 star 2 stars 3 stars 4 stars 5 stars
comments

3rd Rock Theme Tab

E-------------------------------------------
B--10-10-10-10-10-10-10-10-10-10-10-10------
G--9--9--9---9--9--9--9--9--9--9--9--9------
D-------------------------------------------
A-------------------------------------------
E-------------------------------------------


E-----------------------------------
B----6--9--11-12-11-9-6-------------
G-7---------------------------------
D-----------------------------------
A-----------------------------------
E-----------------------------------

       repeat top

[ Tab from: http://www.guitartabs.cc/tabs/m/misc_television/3rd_rock_theme_tab.html ]
Comments