Misc Television - 30 Rock Theme Chords & Tabs

 

30 Rock Theme Chords & Tabs

Misc Television Chords & Tabs

Version: 1 Type: Tab 1 rating
1 star 2 stars 3 stars 4 stars 5 stars
comments

30 Rock Theme Tab

Tabbed by: lbr218
Tempo: approx. 135-- listen to the song to get the rhythm

My very first tab so constructive criticism would be great!

Tuning:

e|------|------------------------------------|--------------6-6---------------|
B|45678-|------------------------------------|-----6-8--6-8-----8-------------|
G|------|------------------------------------|---7----------------------------|
D|------|------------------------------------|--------------------------------|
A|------|-------------1-3-4-5-5---5-4-3--1---|--------------------------------|
E|------|---3-3-----3----------------------3-|--------------------------------|
[ Tab from: http://www.guitartabs.cc/tabs/m/misc_television/30_rock_theme_tab.html ]
e|---------------6-6----|-----------------------|---------|-------------------|
B|-----6-8--6-8------8--|-----------------------|---------|-------------------|
G|---7------------------|-----------------------|---------|---7-6-5-4-3-2-----|
D|----------------------|-----------------------|---3-----|---------------6---|
A|----------------------|-------------1-3-4-5-5-|-5---5-3-|-5---4-3-2-1-0-----|
E|----------------------|---3-3-----3-----------|---------|---------------4---|

e|------------------------3---------------------------------------------------|
B|------------3-3---------3---------------------------------------------------|
G|-----3-5-6------6-5-3-------------------------------------------------------|
D|-5-5------------------5-----------------------------------------------------|
A|----------------------------------------------------------------------------|
E|-3-3------------------------------------------------------------------------|
Comments