Misc Spanish - Spanish Song Chords & Tabs

 

Spanish Song Chords & Tabs

Misc Spanish Chords & Tabs

Version: 1 Type: Tab 3 ratings
1 star 2 stars 3 stars 4 stars 5 stars
comments

Spanish Song Tab



                                 


    any corrections or questions email me at coolmick46@hotmail.com


play very fast

e|-0----0----0------0-0-0-0-0-0----------0----0----0------0-0-0-0--0---------|
B|-0----0----0------0-0-0-0-0-0----------0----0----0------0-0-0-0--0---------|
G|-1----1----1------2-2-2-2-2-2----------1----1----1------2-2-2-2--2---------|
D|-2----2----2------3-3-3-3-3-3----------2----2----2------3-3-3-3--3---------|
A|-2----2----2------3-3-3-3-3-3----------2----2----2------3-3-3-3--3---------|
E|-0----0----0------0-0-0-0-0-0----------0----0----0------0-0-0-0--0---------|


e|-------------------------------------------------------------0-------------|
B|-----0----0----0----0----0----0----0----0----0----0----0---0---------------|
G|---1----1----1----1----1----1----1----1----1----1----1---------------------|
D|-2----2----0----2----2----3----2----2----0----2----2----3------------------|
A|---------------------------------------------------------------------------|
E|---------------------------------------------------------------------------|

e|-----0----0-----0----0----0----0----0----0----0----0------------0----0----0|
B|---0----0-----1----0----0----0----0----0----0----0------------1----1----1--|
G|------------2----1----1----------------------------------------------------|
D|-2----2--------------------3----2----2----0----2-----2---------------------|
A|------------------------------------------------------------0----0----2----|
E|---------------------------------------------------------------------------|

[ Tab from: http://www.guitartabs.cc/tabs/m/misc_spanish/spanish_song_tab.html ]
e|----0---0---0----0----0----0----0----0---------0----0----0-----------------|
B|---1---1---1---0----0----0----0----0---------1----1----1-------------------|
G|---------------------------------------------------------------------------|
D|---------2-----------------------------2-----------------------------------|
A|-3---3-------2----2------------------------0----0----2---------------------|
E|-----------------------4----0----0-----------------------------------------|

e|-----0----0----0----0----0----0----0---------------------------------------|
B|---1----1----1----0----0----0----0------------1--1--1----------------------|
G|---------------------------------------------------------------------------|
D|-----------2---------------------------0-----------------------------------|
A|-3----3---------2----2----------------------3--0--3------------------------|
E|--------------------------4----0----0--------------------------------------|

e|---------------------------------------------------------------------------|
B|---0--0--0--1--0-------------------1--1--1---------------------------------|
G|-------------------2----1--------------------------------------------------|
D|-----------------------2----0----------------------------------------------|
A|-2-----2--0----------------------3--0--3-----------------------------------|
E|----3--------3---1---0-----------------------------------------------------|

e|------------------------------0----------0----0----0-----------------------|
B|---0--0--0-------------------0-----------0----0----0-----------------------|
G|-------------2---0----------1------------1----1----1-----------------------|
D|---------------------3-----2-------------2----2----2-----------------------|
A|-2-----2---0--------------2--------------2----2----2-----------------------|
E|----3----------3---1-----0---------------0----0----0-----------------------|

e|-0-0-0-0-0-0-----0----0----0------0-0-0-0-0-0-----0----------0-------------|
B|-0-0-0-0-0-0-----0----0----0------0-0-0-0-0-0-----0----------0-------------|
G|-2-2-2-2-2-2-----1----1----1------2-2-2-2-2-2-----1----------1-------------|
D|-3-3-3-3-3-3-----2----2----2------3-3-3-3-3-3-----2----------2-------------|
A|-3-3-3-3-3-3-----2----2----2------3-3-3-3-3-3-----2----------2-------------|
E|-0-0-0-0-0-0-----0----0----0------0-0-0-0-0-0-----0----------0-------------|



    Done.


Comments