Misc Soundtrack - X Men Theme Chords & Tabs

 

X Men Theme Chords & Tabs

Misc Soundtrack Chords & Tabs

Version: 3 Type: Tab 0 ratings
1 star 2 stars 3 stars 4 stars 5 stars
comments

X Men Theme Tab

pancreas@vt.edu (pancreas)

   Well.  It looks like I got it an octave too low the first 
time.  It also reapeats itself once.  I'll fix that in this tab. 
 There is also a line of harmony playing in a lot of places that 
I don't think is possible to play on the guitar (unless you have 
two of course).  Here is the "correct" version by me!  Others are 
welcome to fix things for me.


BEGIN X-Men TV SHow Theme Song
e----------------------------------------------------------
B----------------------------------------------------------
G----------------------------------------------------------
D-------10--13--12----10---------------10--13---12---10----
A-10-13-------------------10---10--13--------------------11
E----------------------------------------------------------


e---------------------------------------------
B----------------------------------------13---
G--------------------------------------12~~---
D--------10--13--12----10--13----12--10~~~~---
A-10--13--------------------------------------
E---------------------------------------------
[ Tab from: http://www.guitartabs.cc/tabs/m/misc_soundtrack/x_men_theme_tab_ver_3.html ]
e----------------------------------------------------------
B----------------------------------------------------------
G-------10--13--12----10---------------10--13---12---10----
D-10-13-------------------10---10--13--------------------11
A----------------------------------------------------------
E----------------------------------------------------------

e-------------------------------------------
B----------------------------------------13-
G--------------------------------------12~~-
D--------10--13--12----10--13----12--10~~~~-
A-10--13------------------------------------
E-------------------------------------------

e-------------------------------------------------------
B---------------------------------------------------15--
G-----------------------------------------------13--12--
D--------------------------------------------13---------
A--11-10-8------13-11-10------15-13-11---15-------------
E-------------------------------------------------------
  ^4 times^     ^4 times^     ^3 times^
Repeat once from the beginning

e-------------------------------------------
B--------------------------------------13---
G--------------------------------12----12---
D--------10--13--12----10--13----------10---
A-10--13------------------------------------
E-------------------------------------------
END XMen TV Show Theme Song
Comments