Misc Soundtrack - Wizard Of Oz Witch Is Dead Chords & Tabs

 

Wizard Of Oz Witch Is Dead Chords & Tabs

Misc Soundtrack Chords & Tabs

Version: 1 Type: Tab 1 rating
1 star 2 stars 3 stars 4 stars 5 stars
comments

Wizard Of Oz Witch Is Dead Tab

Here's my drop D rendition.  
I like to play around with it alot.  This is the basic melody.
[ Tab from: http://www.guitartabs.cc/tabs/m/misc_soundtrack/wizard_of_oz_witch_is_dead_tab.html ]
e--------------------------------------------------------------
b--------------------------------------------------------------
g--------------------------------------------------------------
d-12--12--9-10-12-9--9-9-7-5--9-9-7-5---12--12--9-10-12-15-14-12
a-12--12--9-10-12-9--9-9-7-5--9-9-7-5---12--12--9-10-12-15-14-12
D-12--12--9-10-12-9--9-9-7-5--9-9-7-5---12--12--9-10-12-15-14-12

Also works like this:

e-0--0-----0-----------------------0--0------0-3-2-0-------------
b------2h3---2--2-2-0----2-2-0-----------2h3---------------------
g---------------------2--------2---------------------------------
d---------------------------->
a---------------------------->
e---------------------------->

Email at defmick@hotmail.com for questions, comments, obnoxious chatter, etc.
Comments