Misc Soundtrack - Winter Sonata Theme Chords & Tabs

 

Winter Sonata Theme Chords & Tabs

Misc Soundtrack Chords & Tabs

Version: 1 Type: Tab 0 ratings
1 star 2 stars 3 stars 4 stars 5 stars
comments

Winter Sonata Theme Tab

   
WINTER SONATA
(Themes from the movie Winter Sonata)
Edited my Trouble_Maker 

Tuning : E A D G B E 	
Time Signature: 4/4

 |       |       |       |        |       |       |       |        
|------------------------0---2---|3-----------3-----------3---5---|
|--------------------0-----------|--------------------1-----------|
|--------------------------------|--------0-----------------------|
|--------------------------------|----2---------------------------|
|--------------------------------|3-------------------------------|
|--------------------------------|--------------------------------|

 |       |       |       |        |       |       |       |        
|3-----------2---------------0---|2-----------2-----------2---3---|
|--------3---------------3-------|--------------------0-----------|
|----2---------------2-----------|--------2-----------------------|
|0-------------------------------|----4---------------------------|
|----------------3---------------|2-------------------------------|
|--------------------------------|--------------------------------|

 |       |       |       |        |       |       |       |        
|2-------3---0-------------------|--------------------------------|
|----------------------------0---|3-------1---1---------------0---|
|----0-------------------2-------|--------------------------------|
|--------------------2-----------|----2---------------1---2-------|
|--------------------------------|0-------------------------------|
|0---------------4---------------|--------------------------------|

 |       |       |       |        |       |       |       |        
|--------------------------------|--------------------------------|
|--------------------------------|------------------------0-------|
|2-------0-------------------0---|------------------------0-------|
|------------4-----------1-------|4-----------2-----------2-------|
|2-------------------2-----------|--------------------------------|
|--------------------------------|0-------------------------------|

 |       |       |       |        |       |       |       |        
|0-----------------------0---2---|3---3---3---3-------3-------3---|
|0-------------------------------|------------1-------------------|
|0-------------------------------|------------0-------------------|
|--------------------------------|------------2-------------------|
|--------------------------------|3-------------------------------|
|0-------------------------------|--------------------------------|

 |       |       |       |        |       |       |       |        
|----5-----------------------0---|2---2---2---2-------3-------0---|
|------------------------3-------|------------3-------------------|
|------------2-------------------|------------2-------------------|
|0-------------------------------|------------4-------------------|
|--------------------------------|2-------------------------------|
|--------------------------------|--------------------------------|

 |       |       |       |        |       |       |       |        
|0-------------------------------|0---0---0---0-------0-------0---|
|------------------------1---3---|------------1-------------------|
|------------0-------------------|------------2-------------------|
|----2---4-----------------------|------------2-------------------|
|3-------------------------------|0-------------------------------|
|--------------------------------|--------------------------------|

 |       |       |       |        |       |       |       |        
|------------0-------2-------3---|------------------------0---2---|
|--------4---4-------4-----------|--------------------------------|
|--------2---2-------2-----------|------------0-------------------|
|--------------------------------|----2---4-----------------------|
|2-------------------------------|--------------------------------|
|--------------------------------|0-------------------------------|

 |       |       |       |        |       |       |       |        
|3---3---3---3-------3-------3---|----5-----------------------7---|
|------------1-------------------|------------3-----------3-------|
|------------2-------------------|------------2-------------------|
|------------2-------------------|0-------------------------------|
|0-------------------------------|--------------------------------|
|--------------------------------|--------------------------------|

 |       |       |       |        |       |       |       |        
|----7---7---10------10------7-3-|3-----------------------0---2---|
|------------0-------------------|------------1-------------------|
|------------0-------------------|--------0-----------------------|
|--------------------------------|----2---------------------------|
|--------------------------------|3-------------------------------|
|3-------------------------------|--------------------------------|

 |       |       |       |        |       |       |       |        
|3---3---3---3---------------3---|0---5-------7-------8-------7---|
|------------1-------------------|1-------------------------------|
|------------2-------------------|--------------------------------|
|------------2-------------------|4-------------------------------|
|0-------------------------------|0-------------------------------|
|--------------------------------|--------------------------------|

 |       |       |       |        |       |       |       |        
|7-------------------2-------7---|7---------------5-------0-------|
|------------4-------------------|7-------------------------------|
|--------2-----------------------|8-------------------------------|
|----4---------------------------|7-------------------------------|
|2-------------------------------|9-------------------------------|
|--------------------------------|7-------------------------------|

 |       |       |       |        |       |       |       |        
|8---8---8---8-------7---5---3---|2-----------2---3---5-------7---|
|------------5-----------5-------|--------3-------3---------------|
|------------5-----------5-------|----2-----------2---------------|
|------------7-----------7-------|0-------------------------------|
|0-------------------------------|--------------------------------|
|--------------------------------|--------------------------------|

 |       |       |       |        |       |       |       |        
|----8---7---8---7---5---3---2---|0-------------------0---2---3---|
|------------0-----------0-------|------------1-------------------|
|------------0-----------0-------|--------0-----------------------|
|--------------------------------|----2---------------------------|
|--------------------------------|3-------------------------------|
|3-------------------------------|--------------------------------|

 |       |       |       |        |       |       |       |        
|5---5---5---5-------3---2---0---|------------0-------2-----------|
|------------5-----------1-------|4-------4-----------4-----------|
|------------5-----------2-------|--------2-----------2-----------|
|--------------------------------|--------4-----------------------|
|0-------------------------------|2-------------------------------|
|--------------------------------|--------------------------------|

 |       |       |       |        |       |       |       |        
|5-------3---3-------5-------7---|7-----------0---5-------7-------|
|--------0---0-------------------|--------3-------1-------3-------|
|----0-----------0-------0-------|----1---------------------------|
|--------------------------------|--------------------------------|
|--------------------------------|--------------------------------|
|0-------------------------------|0-------------------------------|
[ Tab from: http://www.guitartabs.cc/tabs/m/misc_soundtrack/winter_sonata_theme_tab.html ]
 |       |       |       |        |       |       |       |        
|8---8---8---8-------7---5---3---|2-----------2---3---5-------7---|
|5-----------5-----------5-------|--------3-------3---------------|
|------------5-----------5-------|----2-----------2---------------|
|------------7-----------7-------|0-------------------------------|
|0-------------------------------|--------------------------------|
|--------------------------------|--------------------------------|

 |       |       |       |        |       |       |       |        
|----8---7---8---7---5---3---2---|0-------------------0---2---3---|
|------------0-----------0-------|------------1-------------------|
|------------0-----------0-------|--------0-----------------------|
|--------------------------------|----2---------------------------|
|--------------------------------|3-------------------------------|
|3-------------------------------|--------------------------------|

 |       |       |       |        |       |       |       |        
|5---5---5---5-------3---2---0---|------------0-------2-----------|
|------------5-----------1-------|4-------4-----------4-----------|
|------------5-----------2-------|--------2-----------2-----------|
|--------------------------------|--------4-----------------------|
|0-------------------------------|2-------------------------------|
|--------------------------------|--------------------------------|

 |       |       |       |        |       |       |       |        
|2-------2---2-------3-------2-0-|0-----------------------0-------|
|------------0-----------0-------|----------------0---------------|
|--------2-----------2-----------|--------0-----------------------|
|----4-----------4---------------|--------------------------------|
|--------------------------------|--------------------------------|
|0-------------------------------|0-------------------------------|

 |       |       |       |        |       |       |       |        
|7-------5---5-------3-------5---|5-------2---5-------------------|
|--------1---5-------------------|----3-----------------------3---|
|----2---------------------------|--------------------------------|
|--------------------------------|0-------------------------------|
|0-------------------------------|--------------------------------|
|--------------------------------|--------------------------------|

 |       |       |       |        |       |       |       |        
|12------10--10------8-------7-5-|7-----------0-----------3---3---|
|----0-----------0-------0-------|--------0-----------0-----------|
|0-------------------------------|----0---------------------------|
|--------------------------------|--------------------------------|
|--------------------------------|--------------------------------|
|--------------------------------|0-------------------------------|

 |       |       |       |        |       |       |       |        
|5-------5---5---------------5---|5-------5---7-------8-------7---|
|--------1---6-------1-----------|5-------5-----------------------|
|----2---------------------------|5-------5-----------------------|
|3-------------------------------|4-------------------------------|
|--------------------------------|--------------------------------|
|--------------------------------|--------------------------------|

 |       |       |       |        |       |       |       |        
|7-------------------2-------7---|7---------------5-------7-------|
|------------4-------------------|7-------------------------------|
|--------2-----------------------|8-------------------------------|
|----4---------------------------|7-------------------------------|
|2-------------------------------|9-------------------------------|
|--------------------------------|7-------------------------------|

 |       |       |       |        |       |       |       |        
|8---8---8---8-------7---5---3---|2-----------2---3---5-------7---|
|------------5-----------5-------|--------3-------3---------------|
|------------5-----------5-------|----2-----------2---------------|
|------------7-----------7-------|0-------------------------------|
|0-------------------------------|--------------------------------|
|--------------------------------|--------------------------------|

 |       |       |       |        |       |       |       |        
|----8---7---8---7---5---3---2---|0-------------------0---2---3---|
|------------0-----------0-------|------------1-------------------|
|------------0-----------0-------|--------0-----------------------|
|--------------------------------|----2---------------------------|
|--------------------------------|3-------------------------------|
|3-------------------------------|--------------------------------|

 |       |       |       |        |       |       |       |        
|5---5---5---5-------3---2---0---|--------8---7-------5-----------|
|------------5-----------1-------|4-------0-----------4-----------|
|------------5-----------2-------|--------8-----------4-----------|
|--------------------------------|--------------------------------|
|0-------------------------------|2-------------------------------|
|--------------------------------|--------------------------------|

 |       |       |       |        |       |       |       |        
|5-------3---3-------5-------7---|7-----------0---7-------10------|
|--------0---0-------------------|--------3-------3-------6-------|
|----0-----------0-------0-------|----1---------------------------|
|--------------------------------|--------------------------------|
|--------------------------------|--------------------------------|
|0-------------------------------|0-------------------------------|

 |       |       |       |        |       |       |       |        
|10--8---8---8-------7---5---3---|2-----------12--10--8-------7---|
|------------5-----------5-------|--------3-------0---------------|
|------------5-----------5-------|----2-----------0---------------|
|------------7-----------7-------|0-------------------------------|
|0-------------------------------|--------------------------------|
|--------------------------------|--------------------------------|

 |       |       |       |        |       |       |       |        
|----8---7---8---7---5---3---2---|0-------------------0---2---3---|
|--------0-----------0-----------|------------1-------------------|
|--------0-----------0-----------|--------0-----------------------|
|--------------------------------|----2---------------------------|
|--------------------------------|3-------------------------------|
|3-------------------------------|--------------------------------|

 |       |       |       |        |       |       |       |        
|5---5---5---5-------3---2---0---|------------0-------2-----------|
|------------5-----------1-------|4-------4-----------4-----------|
|------------5-----------2-------|--------2-----------2-----------|
|--------------------------------|--------4-----------------------|
|0-------------------------------|2-------------------------------|
|--------------------------------|--------------------------------|

 |       |       |       |        |       |       |       |        
|2-------2---2-------3-------2-0-|0---------------0---------------|
|------------0-----------0-------|--------0-----------0-----------|
|--------2-----------2-----------|----0-------0-------------------|
|----4-----------4---------------|--------------------------------|
|--------------------------------|--------------------------------|
|0-------------------------------|0-------------------------------|

 |       |       |       |        |       |       |       |        
|7-----------------------5---3---|2---------------2---------------|
|5-----------------------1---0---|1---------------0---------------|
|5-------------------------------|2---------------2---------------|
|--------------------------------|----------------1---------------|
|0-------------------------------|0---------------2---------------|
|--------------------------------|--------------------------------|

 |       |       |       |        |       |       |       |        
|0-------------------------------|--------------------------------|
|3-------------------------------|--------------------------------|
|0-------------------------------|--------------------------------|
|2-------------------------------|--------------------------------|
|--------------------------------|--------------------------------|
|0-------------------------------|--------------------------------|
Comments