Misc Soundtrack - Unforgiven Chords & Tabs

 

Unforgiven Chords & Tabs

Misc Soundtrack Chords & Tabs

Version: 1 Type: Tab 0 ratings
1 star 2 stars 3 stars 4 stars 5 stars
comments

Unforgiven Tab

Well for all you western movie fans, and Clint Eastwood for that matter, here are the tabs for the
main song in the movie Unforgiven.  It's really simple if you just listen to the song! Enjoy!


B  -------------------------------------------------------------------------17 16-------16---------                                                                                                                                            
G  13 16 14 / 14 14 16 18 16 14 13 / 13 13 14 16 14 / 14 14 16             16 /      18 14 /

B  --------------------------------------------------------------------------------------------17 16 ---
G  16 14 13 / 13 13 14 16 14 / 14 14 16 18 16 14 13 / 13 13 14 16 14 / 14 14 16          16 / 

B  16-------------------------------------------------------------------------------------------------
G       18 14 / 16 14 13 / 11 13 14 14 / 11 9 8 / 8 9 11 13 / 9 8 6 / 11 13 14 14 / 11 9 8 /

B  -------------------------------------------------------------------------------------------------17-
G  8 9 11 6 / 4 / 13 13 14 16 14 / 14 14 16 18 16 14 13/ 13 13 14 16 14 / 14 14 16      

B  16------16-------------------------------------------------------------------------------------------
G       16 /      18 14 / 16 14 13
[ Tab from: http://www.guitartabs.cc/tabs/m/misc_soundtrack/unforgiven_tab.html ]
Then the orchestra breaks in w/o the guitar, and then the guitar comes in playing a half step higher:

B  -----------------------------------------------------------------------------------------------------
G 12 14 15 15 / 12 10 9 / 9 10 12 14 / 10 9  7 / 12 14 15 15 / 12 10 9 / 9 10 / 7 / 5 /

B  ------------------------------------------------------------------------------------18 17------------
G  14 14 15 17 15 / 15 15 17 19 17 15 14 / 14 14 15 17 15 / 15 15 17           17 /

B  17-----------------------------------------------------------------------------------------------------
G      19 15 / 17 15 14

And then it goes on to place this twice: 

B  ------------------------------------------------------------------------------ 18 17------17--------
G  14 14 15 17 15 / 15 15 17 19 17 15 14 / 14 14 15 17 15 / 15 15 17         17 /       19 15 / 

B  ----------------------- 18 17-------17---------------------------------------------------------------
G  17 15 14 / 15 15 17           17 /       19 15 / 17 15 14

There is a retard at the end of the song, so just listen to it for the rhythm.  The slash marks give a good 
indication of breaks.  If anyone needs the violin part, I’ll have that worked out soon- just email me and let 
me know you need it:  merlyteen@yahoo.com
Comments