Misc Soundtrack - Top Gun Anthem Chords & Tabs

 

Top Gun Anthem Chords & Tabs

Misc Soundtrack Chords & Tabs

Version: 3 Type: Tab 1 rating
1 star 2 stars 3 stars 4 stars 5 stars
comments

Top Gun Anthem Tab

Top Gun Anthem
Standard Tuning
This is my first tab ever, so bear with me, this song is pretty easy so
and fun to play...Clapton was supposed to play this on the soundtrack
but something didnt work out and he didnt get to (little trivia)
-the inferno-



E-|---------------------------------|----------------------------------|
B-|---------------------------------|----------------------------------|
G-|-----7---7---5-4-5-4-------------|-4-----4-5---4---4----------------|
D-|-5-------------------7---7---5-7-|-----7---------5-----7---7--------|
A-|---------------------------------|----------------------------------|
E-|---------------------------------|----------------------------------|
[ Tab from: http://www.guitartabs.cc/tabs/m/misc_soundtrack/top_gun_anthem_tab_ver_3.html ]
E-|---------------------------------|----------------------------------|
B-|---------------------------------|----------------------------------|
G-|-----7---7---5-4-5-4-------------|-4-----4-5---4---7----------------|
D-|-5-------------------7---7---5-7-|-----7---------5------------------|
A-|---------------------------------|----------------------------------|
E-|---------------------------------|----------------------------------|

E-|---------------------------------|----------------------------------|
B-|-----10---10-8-7-8-7-------------|----------------------------------|
G-|-9-------------------9---9-------|-7-----7-8---7---7----------------|
D-|-----------------------------7-9-|-----9---------7-----9---9--------|
A-|---------------------------------|----------------------------------|
E-|---------------------------------|----------------------------------|

E-|---------------------------------|----------------------------------|
B-|---------------------------------|----------------------------------|
G-|-----10---10-8-7-8-7-------------|-7-----7-8---7---10---------------|
D-|-9-------------------9---9---7-9-|-----9---------7------------------|
A-|---------------------------------|----------------------------------|
E-|---------------------------------|----------------------------------|
Comments