Misc Soundtrack - Top Gun Anthem Chords & Tabs

 

Top Gun Anthem Chords & Tabs

Misc Soundtrack Chords & Tabs

Version: 1 Type: Tab 1 rating
1 star 2 stars 3 stars 4 stars 5 stars
comments

Top Gun Anthem Tab

E-|---------------------------------|----------------------------------|
B-|---------------------------------|----------------------------------|
G-|-----7---7---5-4-5-4-------------|-4-----4-5---4---4----------------|
D-|-5-------------------7---7---5-7-|-----7---------5-----7---7--------|
A-|---------------------------------|----------------------------------|
E-|---------------------------------|----------------------------------|

E-|---------------------------------|----------------------------------|
B-|---------------------------------|----------------------------------|
G-|-----7---7---5-4-5-4-------------|-4-----4-5---4---7----------------|
D-|-5-------------------7---7---5-7-|-----7---------5------------------|
A-|---------------------------------|----------------------------------|
E-|---------------------------------|----------------------------------|
[ Tab from: http://www.guitartabs.cc/tabs/m/misc_soundtrack/top_gun_anthem_tab.html ]
Comments