Misc Soundtrack - The Vampire Lestat - System Chords & Tabs

 

The Vampire Lestat - System Chords & Tabs

Misc Soundtrack Chords & Tabs

Version: 1 Type: Bass Tab 0 ratings
1 star 2 stars 3 stars 4 stars 5 stars
comments

The Vampire Lestat - System Bass Tab

   
-----------------------------------------------------------------------------
			  SYSTEM - The Vampire Lestat
-----------------------------------------------------------------------------
Tabbed By : KoRnKid89
e-mail: XblytheX89@aol.com

Queen of the Damned: Music from the Motion Picture

Chester Bennington - vocals, 
Jonathan Davis - guitar, bass, keyboards
Vinnie Colaiuta - drums

standard tuning

Intro: 
G|----------------|---------------|---------------|---------------|-------|
D|----------------|---------------|---------------|---------------|-------|
A|--3-0h1p0h1p0h1-|-3-1h3p1h3p1h3-|-3-0h1p0h1p0h1-|-3-1h3p1h3p1h3-|-3-0h1-|
E|----------------|---------------|---------------|---------------|-------|


            "sys---tem"     "sys---tem"     "sys---tem"     "sys--
G|---------------|---------------|---------------|---------------|
D|---------------|---------------|---------------|---------------|
A|---------------|---------------|---------------|---------------|
E|--5h6-5--5h6-5-|--5h6-5--5h6-3-|--5h6-5--5h6-5-|--5h6-5--5h6-3-|
 


Verse 1:     
           "You fell away..."            
G|---------------|---------------|---------------|---------------|
D|---------------|---------------|---------------|---------------|
A|---------------|---------------|---------------|---------------|
E|--5h6-5--5h6-5-|--5h6-5--5h6-3-|--5h6-5--5h6-3-|--5h6-5--5h6-5-|
[ Tab from: http://www.guitartabs.cc/tabs/m/misc_soundtrack/the_vampire_lestat_system_btab.html ]
         "I can't replace..."
G|---------------|---------------|---------------|---------------|
D|---------------|---------------|---------------|---------------|
A|---------------|---------------|---------------|---------------|
E|--5h6-5--5h6-3-|--5h6-5--5h6-3-|--5h6-5--5h6-5-|--5h6-5--5h6-3-|



Chorus:   
          "Why won't you die?..."  
G|--------|--------|--------|--------|
D|--------|--------|--------|--------|
A|--------|--------|--------|--------|
E|55555555|55555555|33333333|66666666|
(x4)


Verse 2:
         "So many words..."
G|---------------|---------------|
D|---------------|---------------|
A|---------------|---------------|
E|--5h6-5--5h6-5-|--5h6-5--5h6-3-|
(x4)


Bridge: (let all notes ring)
G|------------------|--------------------|
D|------------------|--------------------|
A|-0----------------|4------5----3----1--|
E|------------------|--------------------|
(x2)

 "Why is everything so f***ing hard for me?..."
G|------------------|--------------------|
D|------------------|--------------------|
A|-0----------------|4------5----3----1--|
E|------------------|--------------------|
(x6)



Outro: bass fades in, then out
G|----------------|---------------|---------------|---------------|-------|
D|----------------|---------------|---------------|---------------|-------|
A|--3-0h1p0h1p0h1-|-3-1h3p1h3p1h3-|-3-0h1p0h1p0h1-|-3-1h3p1h3p1h3-|-3-0h1-|
E|----------------|---------------|---------------|---------------|-------|




| /  slide up
| \  slide down
| h  hammer-on
| p  pull-off
| ~  vibrato
| +  harmonic
| x  Mute note
=============================================================================
Comments