Misc Soundtrack - The Vampire Lestat - Redeemer Chords & Tabs

 

The Vampire Lestat - Redeemer Chords & Tabs

Misc Soundtrack Chords & Tabs

Version: 1 Type: Bass Tab 0 ratings
1 star 2 stars 3 stars 4 stars 5 stars
comments

The Vampire Lestat - Redeemer Bass Tab

   
-----------------------------------------------------------------------------
			     REDEEMER - The Vampire Lestat
-----------------------------------------------------------------------------
Tabbed By : KoRnKid89
e-mail: XblytheX89@aol.com

Queen of the Damned: Music from the Motion Picture

Marilyn Manson - vocals
Brian "Head" Welch and James "Munky" Shaffer - guitars
Sam Rivers - bass
Vinnie Colaiuta - drums
Richard "Hard" Gibbs and Jonathan Davis - keyboards

standard tuning

Intro pt. 1: No bass.

Intro pt. 2: 
G|---------------|---------------|---------------|-------------|
D|---------------|---------------|---------------|-------------|
A|--6--6-6666666-|---------------|---------------|-------------|
E|---------------|--6--6-6666666-|--1--1-1111111-|--1111111111-|
(x2)


[ Tab from: http://www.guitartabs.cc/tabs/m/misc_soundtrack/the_vampire_lestat_redeemer_btab.html ]
Verse 1: 
 "The hunger inside given to me..."
G|---------------|---------------|---------------|-------------|
D|---------------|---------------|---------------|-------------|
A|--6--6-6666666-|---------------|---------------|-------------|
E|---------------|--6--6-6666666-|--1--1-1111111-|--1111111111-|
(x2)



Chorus: (ring all)
G|-------|-----------------|--------|
D|-------|-----------------|--------|
A|-------|--------6---8~~~~|----8p6-|
E|--6~~~~|----8------------|--------|
(x4)
*In the second chorus, just repeat this pattern twice.



Verse 2: Same pattern as Verse 1, but where the pattern of
Verse 1 is repeated twice, the pattern in Verse 2 is repeated 4 times.




| /  slide up
| \  slide down
| h  hammer-on
| p  pull-off
| ~  vibrato
| +  harmonic
| x  Mute note
=============================================================================
Comments